0
SECTION
2
HEADER
9
$ACADVER
1
AC1006
9
$INSBASE
10
0.0
20
0.0
30
0.0
9
$EXTMIN
10
0.0
20
0.0
9
$EXTMAX
10
0.0
20
0.0
0
ENDSEC
0
SECTION
2
TABLES
0
TABLE
2
LTYPE
70
1
0
LTYPE
2
CONTINUOUS
70
64
3
Solid line
72
65
73
0
40
0.0
0
ENDTAB
0
TABLE
2
LAYER
70
5
0
LAYER
2
PYDXF
70
64
62
7
6
continuous
0
LAYER
2
TEXT
70
64
62
2
6
continuous
0
LAYER
2
CAM
70
64
62
1
6
continuous
0
LAYER
2
ROLLER
70
64
62
5
6
continuous
0
LAYER
2
PRESSURE
70
64
62
3
6
continuous
0
ENDTAB
0
TABLE
2
STYLE
70
1
0
STYLE
2
STANDARD
70
0
40
0
41
40
50
50
71
0
42
1
3
ARIAL.TTF
4

0
ENDTAB
0
TABLE
2
VIEW
70
0
0
ENDTAB
0
ENDSEC
0
SECTION
2
BLOCKS
0
ENDSEC
0
SECTION
2
ENTITIES
0
TEXT
8
text
10
0.95
20
0.7
40
0.1
1
pitch=0.08
0
TEXT
8
text
10
0.95
20
0.5
40
0.1
1
pin diameter=0.15
0
TEXT
8
text
10
0.95
20
0.3
40
0.1
1
eccentricity=0.05
0
TEXT
8
text
10
0.95
20
0.1
40
0.1
1
# of teeth=10
0
TEXT
8
text
10
0.95
20
-0.1
40
0.1
1
pressure angle limit=50.0
0
TEXT
8
text
10
0.95
20
-0.3
40
0.1
1
pressure angle offset=0.01
0
TEXT
8
text
10
0.95
20
-0.5
40
0.1
1
min angle=13.0
0
TEXT
8
text
10
0.95
20
-0.7
40
0.1
1
max angle=112.0
0
CIRCLE
8
pressure
10
-0.05
20
0
40
0.684890689184
0
CIRCLE
8
pressure
10
-0.05
20
0
40
0.752236653671
0
LINE
8
cam
10
0.715
20
0.0
11
0.71490325082
21
0.006010384401
0
LINE
8
cam
10
0.71490325082
20
0.006010384401
11
0.714613480132
21
0.0120074721181
0
LINE
8
cam
10
0.714613480132
20
0.0120074721181
11
0.714132115547
21
0.017978040106
0
LINE
8
cam
10
0.714132115547
20
0.017978040106
11
0.71346152659
21
0.023909012236
0
LINE
8
cam
10
0.71346152659
20
0.023909012236
11
0.712605009995
21
0.0297875318565
0
LINE
8
cam
10
0.712605009995
20
0.0297875318565
11
0.711566769148
21
0.0356010332821
0
LINE
8
cam
10
0.711566769148
20
0.0356010332821
11
0.710351887721
21
0.0413373118657
0
LINE
8
cam
10
0.710351887721
20
0.0413373118657
11
0.708966297548
21
0.0469845923175
0
LINE
8
cam
10
0.708966297548
20
0.0469845923175
11
0.70741674079
21
0.0525315949479
0
LINE
8
cam
10
0.70741674079
20
0.0525315949479
11
0.705710726433
21
0.0579675995244
0
LINE
8
cam
10
0.705710726433
20
0.0579675995244
11
0.703856481168
21
0.0632825064546
0
LINE
8
cam
10
0.703856481168
20
0.0632825064546
11
0.701862894688
21
0.0684668950266
0
LINE
8
cam
10
0.701862894688
20
0.0684668950266
11
0.699739459426
21
0.0735120784647
0
LINE
8
cam
10
0.699739459426
20
0.0735120784647
11
0.697496204713
21
0.0784101555911
0
LINE
8
cam
10
0.697496204713
20
0.0784101555911
11
0.695143625317
21
0.0831540589181
0
LINE
8
cam
10
0.695143625317
20
0.0831540589181
11
0.692692604268
21
0.0877375990418
0
LINE
8
cam
10
0.692692604268
20
0.0877375990418
11
0.690154329789
21
0.0921555052598
0
LINE
8
cam
10
0.690154329789
20
0.0921555052598
11
0.687540206089
21
0.0964034624003
0
LINE
8
cam
10
0.687540206089
20
0.0964034624003
11
0.694769571819
21
0.101832846051
0
LINE
8
cam
10
0.694769571819
20
0.101832846051
11
0.692030423748
21
0.105788634634
0
LINE
8
cam
10
0.692030423748
20
0.105788634634
11
0.689249904166
21
0.109565594505
0
LINE
8
cam
10
0.689249904166
20
0.109565594505
11
0.686439286566
21
0.113163501286
0
LINE
8
cam
10
0.686439286566
20
0.113163501286
11
0.683609500165
21
0.116583231717
0
LINE
8
cam
10
0.683609500165
20
0.116583231717
11
0.680770988127
21
0.119826784882
0
LINE
8
cam
10
0.680770988127
20
0.119826784882
11
0.677933551672
21
0.12289730377
0
LINE
8
cam
10
0.677933551672
20
0.12289730377
11
0.675106177113
21
0.12579909912
0
LINE
8
cam
10
0.675106177113
20
0.12579909912
11
0.672296841939
21
0.128537678261
0
LINE
8
cam
10
0.672296841939
20
0.128537678261
11
0.669512294939
21
0.131119782753
0
LINE
8
cam
10
0.669512294939
20
0.131119782753
11
0.666757803882
21
0.133553440144
0
LINE
8
cam
10
0.666757803882
20
0.133553440144
11
0.664036862402
21
0.135848037391
0
LINE
8
cam
10
0.664036862402
20
0.135848037391
11
0.661350845402
21
0.138014426696
0
LINE
8
cam
10
0.661350845402
20
0.138014426696
11
0.658698599444
21
0.140065079152
0
LINE
8
cam
10
0.658698599444
20
0.140065079152
11
0.65607595122
21
0.142014308574
0
LINE
8
cam
10
0.65607595122
20
0.142014308574
11
0.653475113579
21
0.143878598069
0
LINE
8
cam
10
0.653475113579
20
0.143878598069
11
0.650883965386
21
0.145677077239
0
LINE
8
cam
10
0.650883965386
20
0.145677077239
11
0.64828518034
21
0.14743222067
0
LINE
8
cam
10
0.64828518034
20
0.14743222067
11
0.645655184505
21
0.149170872107
0
LINE
8
cam
10
0.645655184505
20
0.149170872107
11
0.642962940607
21
0.15092574796
0
LINE
8
cam
10
0.642962940607
20
0.15092574796
11
0.640168605141
21
0.152737642972
0
LINE
8
cam
10
0.640168605141
20
0.152737642972
11
0.637222214266
21
0.154658650808
0
LINE
8
cam
10
0.637222214266
20
0.154658650808
11
0.634062787621
21
0.156756808182
0
LINE
8
cam
10
0.634062787621
20
0.156756808182
11
0.630618705334
21
0.159122611468
0
LINE
8
cam
10
0.630618705334
20
0.159122611468
11
0.626811083767
21
0.161877655601
0
LINE
8
cam
10
0.626811083767
20
0.161877655601
11
0.62256333238
21
0.165184743993
0
LINE
8
cam
10
0.62256333238
20
0.165184743993
11
0.617822010494
21
0.169256238615
0
LINE
8
cam
10
0.617822010494
20
0.169256238615
11
0.612595139985
21
0.174351665336
0
LINE
8
cam
10
0.612595139985
20
0.174351665336
11
0.59736779228
21
0.178093736465
0
LINE
8
cam
10
0.59736779228
20
0.178093736465
11
0.591764869632
21
0.185863957528
0
LINE
8
cam
10
0.591764869632
20
0.185863957528
11
0.586606145449
21
0.195113313835
0
LINE
8
cam
10
0.586606145449
20
0.195113313835
11
0.582452583336
21
0.205496301259
0
LINE
8
cam
10
0.582452583336
20
0.205496301259
11
0.57970991879
21
0.216337717093
0
LINE
8
cam
10
0.57970991879
20
0.216337717093
11
0.578446779093
21
0.226852825527
0
LINE
8
cam
10
0.578446779093
20
0.226852825527
11
0.578412417385
21
0.236432381719
0
LINE
8
cam
10
0.578412417385
20
0.236432381719
11
0.588532066235
21
0.24841019127
0
LINE
8
cam
10
0.588532066235
20
0.24841019127
11
0.589765676624
21
0.255604755482
0
LINE
8
cam
10
0.589765676624
20
0.255604755482
11
0.591208322111
21
0.261685542904
0
LINE
8
cam
10
0.591208322111
20
0.261685542904
11
0.592700967387
21
0.266857799235
0
LINE
8
cam
10
0.592700967387
20
0.266857799235
11
0.594162023632
21
0.271324740563
0
LINE
8
cam
10
0.594162023632
20
0.271324740563
11
0.59555776045
21
0.275263096402
0
LINE
8
cam
10
0.59555776045
20
0.275263096402
11
0.596880524337
21
0.278817605762
0
LINE
8
cam
10
0.596880524337
20
0.278817605762
11
0.598135064552
21
0.282103578852
0
LINE
8
cam
10
0.598135064552
20
0.282103578852
11
0.599330724265
21
0.285211901886
0
LINE
8
cam
10
0.599330724265
20
0.285211901886
11
0.600477305186
21
0.288214087533
0
LINE
8
cam
10
0.600477305186
20
0.288214087533
11
0.601583062838
21
0.291166558858
0
LINE
8
cam
10
0.601583062838
20
0.291166558858
11
0.60265387668
21
0.294114027245
0
LINE
8
cam
10
0.60265387668
20
0.294114027245
11
0.60369304007
21
0.297092066152
0
LINE
8
cam
10
0.60369304007
20
0.297092066152
11
0.604701360051
21
0.300129042044
0
LINE
8
cam
10
0.604701360051
20
0.300129042044
11
0.605677398727
21
0.303247555721
0
LINE
8
cam
10
0.605677398727
20
0.303247555721
11
0.606617767508
21
0.306465519467
0
LINE
8
cam
10
0.606617767508
20
0.306465519467
11
0.607517429225
21
0.309796966411
0
LINE
8
cam
10
0.607517429225
20
0.309796966411
11
0.608369986701
21
0.313252663854
0
LINE
8
cam
10
0.608369986701
20
0.313252663854
11
0.609167948853
21
0.316840583262
0
LINE
8
cam
10
0.609167948853
20
0.316840583262
11
0.609902971758
21
0.320566265338
0
LINE
8
cam
10
0.609902971758
20
0.320566265338
11
0.610566075225
21
0.324433108189
0
LINE
8
cam
10
0.610566075225
20
0.324433108189
11
0.611147836781
21
0.328442599009
0
LINE
8
cam
10
0.611147836781
20
0.328442599009
11
0.611638565374
21
0.332594504274
0
LINE
8
cam
10
0.611638565374
20
0.332594504274
11
0.612028457136
21
0.336887029421
0
LINE
8
cam
10
0.612028457136
20
0.336887029421
11
0.612307735311
21
0.341316956169
0
LINE
8
cam
10
0.612307735311
20
0.341316956169
11
0.612466776169
21
0.345879763474
0
LINE
8
cam
10
0.612466776169
20
0.345879763474
11
0.612496222453
21
0.350569736601
0
LINE
8
cam
10
0.612496222453
20
0.350569736601
11
0.612387085603
21
0.355380067631
0
LINE
8
cam
10
0.612387085603
20
0.355380067631
11
0.603347094229
21
0.355523216713
0
LINE
8
cam
10
0.603347094229
20
0.355523216713
11
0.602965078169
21
0.36049642959
0
LINE
8
cam
10
0.602965078169
20
0.36049642959
11
0.602421805238
21
0.365562551105
0
LINE
8
cam
10
0.602421805238
20
0.365562551105
11
0.601710585632
21
0.370711386985
0
LINE
8
cam
10
0.601710585632
20
0.370711386985
11
0.60082546593
21
0.37593209687
0
LINE
8
cam
10
0.60082546593
20
0.37593209687
11
0.599761279616
21
0.381213276543
0
LINE
8
cam
10
0.599761279616
20
0.381213276543
11
0.598513690409
21
0.386543039615
0
LINE
8
cam
10
0.598513690409
20
0.386543039615
11
0.597079228607
21
0.391909098807
0
LINE
8
cam
10
0.597079228607
20
0.391909098807
11
0.595455320627
21
0.397298846858
0
LINE
8
cam
10
0.595455320627
20
0.397298846858
11
0.593640311913
21
0.402699437021
0
LINE
8
cam
10
0.593640311913
20
0.402699437021
11
0.591633483323
21
0.408097863027
0
LINE
8
cam
10
0.591633483323
20
0.408097863027
11
0.589435061155
21
0.413481038354
0
LINE
8
cam
10
0.589435061155
20
0.413481038354
11
0.587046220922
21
0.418835874599
0
LINE
8
cam
10
0.587046220922
20
0.418835874599
11
0.584469085009
21
0.424149358707
0
LINE
8
cam
10
0.584469085009
20
0.424149358707
11
0.581706714352
21
0.429408628804
0
LINE
8
cam
10
0.581706714352
20
0.429408628804
11
0.578763094264
21
0.43460104835
0
LINE
8
cam
10
0.578763094264
20
0.43460104835
11
0.575643114584
21
0.439714278323
0
LINE
8
cam
10
0.575643114584
20
0.439714278323
11
0.572352544278
21
0.444736347139
0
LINE
8
cam
10
0.572352544278
20
0.444736347139
11
0.568898000697
21
0.449655718004
0
LINE
8
cam
10
0.568898000697
20
0.449655718004
11
0.565286913655
21
0.454461353386
0
LINE
8
cam
10
0.565286913655
20
0.454461353386
11
0.561527484527
21
0.459142776329
0
LINE
8
cam
10
0.561527484527
20
0.459142776329
11
0.557628640585
21
0.463690128293
0
LINE
8
cam
10
0.557628640585
20
0.463690128293
11
0.553599984773
21
0.46809422324
0
LINE
8
cam
10
0.553599984773
20
0.46809422324
11
0.549451741154
21
0.472346597692
0
LINE
8
cam
10
0.549451741154
20
0.472346597692
11
0.545194696263
21
0.476439556484
0
LINE
8
cam
10
0.545194696263
20
0.476439556484
11
0.540840136587
21
0.480366213956
0
LINE
8
cam
10
0.540840136587
20
0.480366213956
11
0.536399782425
21
0.484120530344
0
LINE
8
cam
10
0.536399782425
20
0.484120530344
11
0.531885718334
21
0.48769734313
0
LINE
8
cam
10
0.531885718334
20
0.48769734313
11
0.527310320405
21
0.491092393135
0
LINE
8
cam
10
0.527310320405
20
0.491092393135
11
0.522686180562
21
0.494302345144
0
LINE
8
cam
10
0.522686180562
20
0.494302345144
11
0.518026028076
21
0.497324802872
0
LINE
8
cam
10
0.518026028076
20
0.497324802872
11
0.513342648442
21
0.500158318082
0
LINE
8
cam
10
0.513342648442
20
0.500158318082
11
0.508648799757
21
0.50280239368
0
LINE
8
cam
10
0.508648799757
20
0.50280239368
11
0.503957126632
21
0.505257480617
0
LINE
8
cam
10
0.503957126632
20
0.505257480617
11
0.499280071661
21
0.507524968446
0
LINE
8
cam
10
0.499280071661
20
0.507524968446
11
0.49462978435
21
0.509607169351
0
LINE
8
cam
10
0.49462978435
20
0.509607169351
11
0.490018027292
21
0.51150729551
0
LINE
8
cam
10
0.490018027292
20
0.51150729551
11
0.492675395388
21
0.520149073712
0
LINE
8
cam
10
0.492675395388
20
0.520149073712
11
0.488134223857
21
0.521739343062
0
LINE
8
cam
10
0.488134223857
20
0.521739343062
11
0.483664694951
21
0.523160619381
0
LINE
8
cam
10
0.483664694951
20
0.523160619381
11
0.479276061004
21
0.524419347536
0
LINE
8
cam
10
0.479276061004
20
0.524419347536
11
0.474976648601
21
0.525522660857
0
LINE
8
cam
10
0.474976648601
20
0.525522660857
11
0.470773731408
21
0.526478314975
0
LINE
8
cam
10
0.470773731408
20
0.526478314975
11
0.466673391376
21
0.527294613635
0
LINE
8
cam
10
0.466673391376
20
0.527294613635
11
0.462680364797
21
0.527980326318
0
LINE
8
cam
10
0.462680364797
20
0.527980326318
11
0.458797868466
21
0.5285445976
0
LINE
8
cam
10
0.458797868466
20
0.5285445976
11
0.455027399681
21
0.528996848354
0
LINE
8
cam
10
0.455027399681
20
0.528996848354
11
0.451368501682
21
0.529346669321
0
LINE
8
cam
10
0.451368501682
20
0.529346669321
11
0.447818483362
21
0.529603708215
0
LINE
8
cam
10
0.447818483362
20
0.529603708215
11
0.444372078278
21
0.529777552799
0
LINE
8
cam
10
0.444372078278
20
0.529777552799
11
0.441021022953
21
0.529877614426
0
LINE
8
cam
10
0.441021022953
20
0.529877614426
11
0.437753527662
21
0.529913020207
0
LINE
8
cam
10
0.437753527662
20
0.529913020207
11
0.43455360394
21
0.52989252808
0
LINE
8
cam
10
0.43455360394
20
0.52989252808
11
0.431400201484
21
0.529824489599
0
LINE
8
cam
10
0.431400201484
20
0.529824489599
11
0.428266092793
21
0.529716902939
0
LINE
8
cam
10
0.428266092793
20
0.529716902939
11
0.425116427794
21
0.529577628733
0
LINE
8
cam
10
0.425116427794
20
0.529577628733
11
0.421906866582
21
0.529414891862
0
LINE
8
cam
10
0.421906866582
20
0.529414891862
11
0.418581196534
21
0.529238276542
0
LINE
8
cam
10
0.418581196534
20
0.529238276542
11
0.415068376168
21
0.529060559424
0
LINE
8
cam
10
0.415068376168
20
0.529060559424
11
0.411279080359
21
0.528900940009
0
LINE
8
cam
10
0.411279080359
20
0.528900940009
11
0.407102174978
21
0.528790534297
0
LINE
8
cam
10
0.407102174978
20
0.528790534297
11
0.402402370111
21
0.528781348017
0
LINE
8
cam
10
0.402402370111
20
0.528781348017
11
0.397022009266
21
0.528960073107
0
LINE
8
cam
10
0.397022009266
20
0.528960073107
11
0.390793034791
21
0.529467102368
0
LINE
8
cam
10
0.390793034791
20
0.529467102368
11
0.383569391041
21
0.530517111778
0
LINE
8
cam
10
0.383569391041
20
0.530517111778
11
0.369050673745
21
0.524594100503
0
LINE
8
cam
10
0.369050673745
20
0.524594100503
11
0.359950592758
21
0.527587026091
0
LINE
8
cam
10
0.359950592758
20
0.527587026091
11
0.350340461994
21
0.532037690535
0
LINE
8
cam
10
0.350340461994
20
0.532037690535
11
0.340877192774
21
0.537996301259
0
LINE
8
cam
10
0.340877192774
20
0.537996301259
11
0.332285906206
21
0.545155093139
0
LINE
8
cam
10
0.332285906206
20
0.545155093139
11
0.325083379061
21
0.552919539675
0
LINE
8
cam
10
0.325083379061
20
0.552919539675
11
0.319424858002
21
0.560649366128
0
LINE
8
cam
10
0.319424858002
20
0.560649366128
11
0.32057144609
21
0.576287797962
0
LINE
8
cam
10
0.32057144609
20
0.576287797962
11
0.317340599118
21
0.58283342067
0
LINE
8
cam
10
0.317340599118
20
0.58283342067
11
0.314933526666
21
0.588600846776
0
LINE
8
cam
10
0.314933526666
20
0.588600846776
11
0.313100926068
21
0.593662644927
0
LINE
8
cam
10
0.313100926068
20
0.593662644927
11
0.311657343164
21
0.598135263687
0
LINE
8
cam
10
0.311657343164
20
0.598135263687
11
0.310471610489
21
0.602141854009
0
LINE
8
cam
10
0.310471610489
20
0.602141854009
11
0.309452460773
21
0.605795013593
0
LINE
8
cam
10
0.309452460773
20
0.605795013593
11
0.308535958605
21
0.609190821902
0
LINE
8
cam
10
0.308535958605
20
0.609190821902
11
0.307676241193
21
0.612408299207
0
LINE
8
cam
10
0.307676241193
20
0.612408299207
11
0.306839204196
21
0.615511061771
0
LINE
8
cam
10
0.306839204196
20
0.615511061771
11
0.305998361825
21
0.618549609289
0
LINE
8
cam
10
0.305998361825
20
0.618549609289
11
0.305132189972
21
0.62156356989
0
LINE
8
cam
10
0.305132189972
20
0.62156356989
11
0.304222443464
21
0.62458365889
0
LINE
8
cam
10
0.304222443464
20
0.62458365889
11
0.303253101823
21
0.627633299613
0
LINE
8
cam
10
0.303253101823
20
0.627633299613
11
0.302209717351
21
0.630729931314
0
LINE
8
cam
10
0.302209717351
20
0.630729931314
11
0.301079020044
21
0.633886053574
0
LINE
8
cam
10
0.301079020044
20
0.633886053574
11
0.299848686279
21
0.637110058656
0
LINE
8
cam
10
0.299848686279
20
0.637110058656
11
0.298507211773
21
0.640406897326
0
LINE
8
cam
10
0.298507211773
20
0.640406897326
11
0.297043850601
21
0.643778615486
0
LINE
8
cam
10
0.297043850601
20
0.643778615486
11
0.295448595642
21
0.647224791225
0
LINE
8
cam
10
0.295448595642
20
0.647224791225
11
0.293712184416
21
0.650742895245
0
LINE
8
cam
10
0.293712184416
20
0.650742895245
11
0.291826119828
21
0.65432859232
0
LINE
8
cam
10
0.291826119828
20
0.65432859232
11
0.289782698916
21
0.657975997268
0
LINE
8
cam
10
0.289782698916
20
0.657975997268
11
0.287575045001
21
0.661677895689
0
LINE
8
cam
10
0.287575045001
20
0.661677895689
11
0.285197140179
21
0.665425937304
0
LINE
8
cam
10
0.285197140179
20
0.665425937304
11
0.282643856093
21
0.669210807827
0
LINE
8
cam
10
0.282643856093
20
0.669210807827
11
0.2799109816
21
0.673022383881
0
LINE
8
cam
10
0.2799109816
20
0.673022383881
11
0.276995246395
21
0.676849874402
0
LINE
8
cam
10
0.276995246395
20
0.676849874402
11
0.269597598825
21
0.671652110832
0
LINE
8
cam
10
0.269597598825
20
0.671652110832
11
0.266365360155
21
0.67545098116
0
LINE
8
cam
10
0.266365360155
20
0.67545098116
11
0.262948051608
21
0.679230231744
0
LINE
8
cam
10
0.262948051608
20
0.679230231744
11
0.259346253064
21
0.682977683077
0
LINE
8
cam
10
0.259346253064
20
0.682977683077
11
0.255561519906
21
0.686681065789
0
LINE
8
cam
10
0.255561519906
20
0.686681065789
11
0.251596375566
21
0.690328116873
0
LINE
8
cam
10
0.251596375566
20
0.690328116873
11
0.247454298564
21
0.693906671238
0
LINE
8
cam
10
0.247454298564
20
0.693906671238
11
0.243139704132
21
0.697404748825
0
LINE
8
cam
10
0.243139704132
20
0.697404748825
11
0.238657920561
21
0.700810637433
0
LINE
8
cam
10
0.238657920561
20
0.700810637433
11
0.234015160415
21
0.704112971299
0
LINE
8
cam
10
0.234015160415
20
0.704112971299
11
0.229218486789
21
0.707300805431
0
LINE
8
cam
10
0.229218486789
20
0.707300805431
11
0.224275774827
21
0.710363685626
0
LINE
8
cam
10
0.224275774827
20
0.710363685626
11
0.219195668708
21
0.713291714091
0
LINE
8
cam
10
0.219195668708
20
0.713291714091
11
0.213987534361
21
0.716075610551
0
LINE
8
cam
10
0.213987534361
20
0.716075610551
11
0.208661408153
21
0.718706768704
0
LINE
8
cam
10
0.208661408153
20
0.718706768704
11
0.203227941845
21
0.721177307883
0
LINE
8
cam
10
0.203227941845
20
0.721177307883
11
0.197698344091
21
0.723480119783
0
LINE
8
cam
10
0.197698344091
20
0.723480119783
11
0.192084318806
21
0.725608910105
0
LINE
8
cam
10
0.192084318806
20
0.725608910105
11
0.186398000697
21
0.727558234966
0
LINE
8
cam
10
0.186398000697
20
0.727558234966
11
0.180651888306
21
0.72932353195
0
LINE
8
cam
10
0.180651888306
20
0.72932353195
11
0.174858774887
21
0.730901145671
0
LINE
8
cam
10
0.174858774887
20
0.730901145671
11
0.169031677459
21
0.732288347719
0
LINE
8
cam
10
0.169031677459
20
0.732288347719
11
0.163183764382
21
0.733483350903
0
LINE
8
cam
10
0.163183764382
20
0.733483350903
11
0.157328281808
21
0.73448531768
0
LINE
8
cam
10
0.157328281808
20
0.73448531768
11
0.151478479328
21
0.735294362694
0
LINE
8
cam
10
0.151478479328
20
0.735294362694
11
0.145647535195
21
0.735911549362
0
LINE
8
cam
10
0.145647535195
20
0.735911549362
11
0.139848481411
21
0.736338880431
0
LINE
8
cam
10
0.139848481411
20
0.736338880431
11
0.134094129042
21
0.73657928246
0
LINE
8
cam
10
0.134094129042
20
0.73657928246
11
0.128396994038
21
0.736636584185
0
LINE
8
cam
10
0.128396994038
20
0.736636584185
11
0.122769223869
21
0.736515488707
0
LINE
8
cam
10
0.122769223869
20
0.736515488707
11
0.117222525233
21
0.736221539469
0
LINE
8
cam
10
0.117222525233
20
0.736221539469
11
0.111768093066
21
0.735761079948
0
LINE
8
cam
10
0.111768093066
20
0.735761079948
11
0.106416541068
21
0.735141207007
0
LINE
8
cam
10
0.106416541068
20
0.735141207007
11
0.101177833883
21
0.734369717791
0
LINE
8
cam
10
0.101177833883
20
0.734369717791
11
0.0960612210226
21
0.733455050043
0
LINE
8
cam
10
0.0960612210226
20
0.733455050043
11
0.0910751725753
21
0.732406215661
0
LINE
8
cam
10
0.0910751725753
20
0.732406215661
11
0.086227316607
21
0.731232727229
0
LINE
8
cam
10
0.086227316607
20
0.731232727229
11
0.083297662776
21
0.739786034432
0
LINE
8
cam
10
0.083297662776
20
0.739786034432
11
0.0786890409627
21
0.738403355708
0
LINE
8
cam
10
0.0786890409627
20
0.738403355708
11
0.0742377108612
21
0.736926069229
0
LINE
8
cam
10
0.0742377108612
20
0.736926069229
11
0.0699473695695
21
0.735364827385
0
LINE
8
cam
10
0.0699473695695
20
0.735364827385
11
0.0658205605712
21
0.733730295408
0
LINE
8
cam
10
0.0658205605712
20
0.733730295408
11
0.061858609739
21
0.732033023088
0
LINE
8
cam
10
0.061858609739
20
0.732033023088
11
0.058061556657
21
0.730283303176
0
LINE
8
cam
10
0.058061556657
20
0.730283303176
11
0.0544280784925
21
0.728491014255
0
LINE
8
cam
10
0.0544280784925
20
0.728491014255
11
0.0509554026427
21
0.726665445226
0
LINE
8
cam
10
0.0509554026427
20
0.726665445226
11
0.047639202995
21
0.724815097826
0
LINE
8
cam
10
0.047639202995
20
0.724815097826
11
0.0444734727283
21
0.722947462649
0
LINE
8
cam
10
0.0444734727283
20
0.722947462649
11
0.0414503639055
21
0.721068763069
0
LINE
8
cam
10
0.0414503639055
20
0.721068763069
11
0.0385599803405
21
0.719183660209
0
LINE
8
cam
10
0.0385599803405
20
0.719183660209
11
0.0357901048848
21
0.717294910867
0
LINE
8
cam
10
0.0357901048848
20
0.717294910867
11
0.0331258346696
21
0.715402969201
0
LINE
8
cam
10
0.0331258346696
20
0.715402969201
11
0.0305490869671
21
0.71350552275
0
LINE
8
cam
10
0.0305490869671
20
0.71350552275
11
0.0280379228066
21
0.711596955005
0
LINE
8
cam
10
0.0280379228066
20
0.711596955005
11
0.0255656134652
21
0.7096677327
0
LINE
8
cam
10
0.0255656134652
20
0.7096677327
11
0.0230993442784
21
0.707703730865
0
LINE
8
cam
10
0.0230993442784
20
0.707703730865
11
0.020598409046
21
0.705685541224
0
LINE
8
cam
10
0.020598409046
20
0.705685541224
11
0.0180116973402
21
0.703587876621
0
LINE
8
cam
10
0.0180116973402
20
0.703587876621
11
0.0152742254676
21
0.701379316447
0
LINE
8
cam
10
0.0152742254676
20
0.701379316447
11
0.0123024426992
21
0.699022889434
0
LINE
8
cam
10
0.0123024426992
20
0.699022889434
11
0.0089881501112
21
0.696478445953
0
LINE
8
cam
10
0.0089881501112
20
0.696478445953
11
0.00519132766323
21
0.693708538108
0
LINE
8
cam
10
0.00519132766323
20
0.693708538108
11
0.000733472331852
21
0.690690632986
0
LINE
8
cam
10
0.000733472331852
20
0.690690632986
11
-0.00460389819754
21
0.687439528942
0
LINE
8
cam
10
-0.00460389819754
20
0.687439528942
11
-0.011065128799
21
0.684043053135
0
LINE
8
cam
10
-0.011065128799
20
0.684043053135
11
-0.0193295591514
21
0.670717348447
0
LINE
8
cam
10
-0.0193295591514
20
0.670717348447
11
-0.0284508768422
21
0.667789782711
0
LINE
8
cam
10
-0.0284508768422
20
0.667789782711
11
-0.0388416708713
21
0.665741752747
0
LINE
8
cam
10
-0.0388416708713
20
0.665741752747
11
-0.05
21
0.665
0
LINE
8
cam
10
-0.05
20
0.665
11
-0.0611583291287
21
0.665741752747
0
LINE
8
cam
10
-0.0611583291287
20
0.665741752747
11
-0.0715491231578
21
0.667789782711
0
LINE
8
cam
10
-0.0715491231578
20
0.667789782711
11
-0.0806704408486
21
0.670717348447
0
LINE
8
cam
10
-0.0806704408486
20
0.670717348447
11
-0.088934871201
21
0.684043053135
0
LINE
8
cam
10
-0.088934871201
20
0.684043053135
11
-0.0953961018025
21
0.687439528942
0
LINE
8
cam
10
-0.0953961018025
20
0.687439528942
11
-0.100733472332
21
0.690690632986
0
LINE
8
cam
10
-0.100733472332
20
0.690690632986
11
-0.105191327663
21
0.693708538108
0
LINE
8
cam
10
-0.105191327663
20
0.693708538108
11
-0.108988150111
21
0.696478445953
0
LINE
8
cam
10
-0.108988150111
20
0.696478445953
11
-0.112302442699
21
0.699022889434
0
LINE
8
cam
10
-0.112302442699
20
0.699022889434
11
-0.115274225468
21
0.701379316447
0
LINE
8
cam
10
-0.115274225468
20
0.701379316447
11
-0.11801169734
21
0.703587876621
0
LINE
8
cam
10
-0.11801169734
20
0.703587876621
11
-0.120598409046
21
0.705685541224
0
LINE
8
cam
10
-0.120598409046
20
0.705685541224
11
-0.123099344278
21
0.707703730865
0
LINE
8
cam
10
-0.123099344278
20
0.707703730865
11
-0.125565613465
21
0.7096677327
0
LINE
8
cam
10
-0.125565613465
20
0.7096677327
11
-0.128037922807
21
0.711596955005
0
LINE
8
cam
10
-0.128037922807
20
0.711596955005
11
-0.130549086967
21
0.71350552275
0
LINE
8
cam
10
-0.130549086967
20
0.71350552275
11
-0.13312583467
21
0.715402969201
0
LINE
8
cam
10
-0.13312583467
20
0.715402969201
11
-0.135790104885
21
0.717294910867
0
LINE
8
cam
10
-0.135790104885
20
0.717294910867
11
-0.13855998034
21
0.719183660209
0
LINE
8
cam
10
-0.13855998034
20
0.719183660209
11
-0.141450363905
21
0.721068763069
0
LINE
8
cam
10
-0.141450363905
20
0.721068763069
11
-0.144473472728
21
0.722947462649
0
LINE
8
cam
10
-0.144473472728
20
0.722947462649
11
-0.147639202995
21
0.724815097826
0
LINE
8
cam
10
-0.147639202995
20
0.724815097826
11
-0.150955402643
21
0.726665445226
0
LINE
8
cam
10
-0.150955402643
20
0.726665445226
11
-0.154428078493
21
0.728491014255
0
LINE
8
cam
10
-0.154428078493
20
0.728491014255
11
-0.158061556657
21
0.730283303176
0
LINE
8
cam
10
-0.158061556657
20
0.730283303176
11
-0.161858609739
21
0.732033023088
0
LINE
8
cam
10
-0.161858609739
20
0.732033023088
11
-0.165820560571
21
0.733730295408
0
LINE
8
cam
10
-0.165820560571
20
0.733730295408
11
-0.16994736957
21
0.735364827385
0
LINE
8
cam
10
-0.16994736957
20
0.735364827385
11
-0.174237710861
21
0.736926069229
0
LINE
8
cam
10
-0.174237710861
20
0.736926069229
11
-0.178689040963
21
0.738403355708
0
LINE
8
cam
10
-0.178689040963
20
0.738403355708
11
-0.183297662776
21
0.739786034432
0
LINE
8
cam
10
-0.183297662776
20
0.739786034432
11
-0.186227316607
21
0.731232727229
0
LINE
8
cam
10
-0.186227316607
20
0.731232727229
11
-0.191075172575
21
0.732406215661
0
LINE
8
cam
10
-0.191075172575
20
0.732406215661
11
-0.196061221023
21
0.733455050043
0
LINE
8
cam
10
-0.196061221023
20
0.733455050043
11
-0.201177833883
21
0.734369717791
0
LINE
8
cam
10
-0.201177833883
20
0.734369717791
11
-0.206416541068
21
0.735141207007
0
LINE
8
cam
10
-0.206416541068
20
0.735141207007
11
-0.211768093066
21
0.735761079948
0
LINE
8
cam
10
-0.211768093066
20
0.735761079948
11
-0.217222525233
21
0.736221539469
0
LINE
8
cam
10
-0.217222525233
20
0.736221539469
11
-0.222769223869
21
0.736515488707
0
LINE
8
cam
10
-0.222769223869
20
0.736515488707
11
-0.228396994038
21
0.736636584185
0
LINE
8
cam
10
-0.228396994038
20
0.736636584185
11
-0.234094129042
21
0.73657928246
0
LINE
8
cam
10
-0.234094129042
20
0.73657928246
11
-0.239848481411
21
0.736338880431
0
LINE
8
cam
10
-0.239848481411
20
0.736338880431
11
-0.245647535195
21
0.735911549362
0
LINE
8
cam
10
-0.245647535195
20
0.735911549362
11
-0.251478479328
21
0.735294362694
0
LINE
8
cam
10
-0.251478479328
20
0.735294362694
11
-0.257328281808
21
0.73448531768
0
LINE
8
cam
10
-0.257328281808
20
0.73448531768
11
-0.263183764382
21
0.733483350903
0
LINE
8
cam
10
-0.263183764382
20
0.733483350903
11
-0.269031677459
21
0.732288347719
0
LINE
8
cam
10
-0.269031677459
20
0.732288347719
11
-0.274858774887
21
0.730901145671
0
LINE
8
cam
10
-0.274858774887
20
0.730901145671
11
-0.280651888306
21
0.72932353195
0
LINE
8
cam
10
-0.280651888306
20
0.72932353195
11
-0.286398000697
21
0.727558234966
0
LINE
8
cam
10
-0.286398000697
20
0.727558234966
11
-0.292084318806
21
0.725608910105
0
LINE
8
cam
10
-0.292084318806
20
0.725608910105
11
-0.297698344091
21
0.723480119783
0
LINE
8
cam
10
-0.297698344091
20
0.723480119783
11
-0.303227941845
21
0.721177307883
0
LINE
8
cam
10
-0.303227941845
20
0.721177307883
11
-0.308661408153
21
0.718706768704
0
LINE
8
cam
10
-0.308661408153
20
0.718706768704
11
-0.313987534361
21
0.716075610551
0
LINE
8
cam
10
-0.313987534361
20
0.716075610551
11
-0.319195668708
21
0.713291714091
0
LINE
8
cam
10
-0.319195668708
20
0.713291714091
11
-0.324275774827
21
0.710363685626
0
LINE
8
cam
10
-0.324275774827
20
0.710363685626
11
-0.329218486789
21
0.707300805431
0
LINE
8
cam
10
-0.329218486789
20
0.707300805431
11
-0.334015160415
21
0.704112971299
0
LINE
8
cam
10
-0.334015160415
20
0.704112971299
11
-0.338657920561
21
0.700810637433
0
LINE
8
cam
10
-0.338657920561
20
0.700810637433
11
-0.343139704132
21
0.697404748825
0
LINE
8
cam
10
-0.343139704132
20
0.697404748825
11
-0.347454298564
21
0.693906671238
0
LINE
8
cam
10
-0.347454298564
20
0.693906671238
11
-0.351596375566
21
0.690328116873
0
LINE
8
cam
10
-0.351596375566
20
0.690328116873
11
-0.355561519906
21
0.686681065789
0
LINE
8
cam
10
-0.355561519906
20
0.686681065789
11
-0.359346253064
21
0.682977683077
0
LINE
8
cam
10
-0.359346253064
20
0.682977683077
11
-0.362948051608
21
0.679230231744
0
LINE
8
cam
10
-0.362948051608
20
0.679230231744
11
-0.366365360155
21
0.67545098116
0
LINE
8
cam
10
-0.366365360155
20
0.67545098116
11
-0.369597598825
21
0.671652110832
0
LINE
8
cam
10
-0.369597598825
20
0.671652110832
11
-0.376995246395
21
0.676849874402
0
LINE
8
cam
10
-0.376995246395
20
0.676849874402
11
-0.3799109816
21
0.673022383881
0
LINE
8
cam
10
-0.3799109816
20
0.673022383881
11
-0.382643856093
21
0.669210807827
0
LINE
8
cam
10
-0.382643856093
20
0.669210807827
11
-0.385197140179
21
0.665425937304
0
LINE
8
cam
10
-0.385197140179
20
0.665425937304
11
-0.387575045001
21
0.661677895689
0
LINE
8
cam
10
-0.387575045001
20
0.661677895689
11
-0.389782698916
21
0.657975997268
0
LINE
8
cam
10
-0.389782698916
20
0.657975997268
11
-0.391826119828
21
0.65432859232
0
LINE
8
cam
10
-0.391826119828
20
0.65432859232
11
-0.393712184416
21
0.650742895245
0
LINE
8
cam
10
-0.393712184416
20
0.650742895245
11
-0.395448595642
21
0.647224791225
0
LINE
8
cam
10
-0.395448595642
20
0.647224791225
11
-0.397043850601
21
0.643778615486
0
LINE
8
cam
10
-0.397043850601
20
0.643778615486
11
-0.398507211773
21
0.640406897326
0
LINE
8
cam
10
-0.398507211773
20
0.640406897326
11
-0.399848686279
21
0.637110058656
0
LINE
8
cam
10
-0.399848686279
20
0.637110058656
11
-0.401079020044
21
0.633886053574
0
LINE
8
cam
10
-0.401079020044
20
0.633886053574
11
-0.402209717351
21
0.630729931314
0
LINE
8
cam
10
-0.402209717351
20
0.630729931314
11
-0.403253101823
21
0.627633299613
0
LINE
8
cam
10
-0.403253101823
20
0.627633299613
11
-0.404222443464
21
0.62458365889
0
LINE
8
cam
10
-0.404222443464
20
0.62458365889
11
-0.405132189972
21
0.62156356989
0
LINE
8
cam
10
-0.405132189972
20
0.62156356989
11
-0.405998361825
21
0.618549609289
0
LINE
8
cam
10
-0.405998361825
20
0.618549609289
11
-0.406839204196
21
0.615511061771
0
LINE
8
cam
10
-0.406839204196
20
0.615511061771
11
-0.407676241193
21
0.612408299207
0
LINE
8
cam
10
-0.407676241193
20
0.612408299207
11
-0.408535958605
21
0.609190821902
0
LINE
8
cam
10
-0.408535958605
20
0.609190821902
11
-0.409452460773
21
0.605795013593
0
LINE
8
cam
10
-0.409452460773
20
0.605795013593
11
-0.410471610489
21
0.602141854009
0
LINE
8
cam
10
-0.410471610489
20
0.602141854009
11
-0.411657343164
21
0.598135263687
0
LINE
8
cam
10
-0.411657343164
20
0.598135263687
11
-0.413100926068
21
0.593662644927
0
LINE
8
cam
10
-0.413100926068
20
0.593662644927
11
-0.414933526666
21
0.588600846776
0
LINE
8
cam
10
-0.414933526666
20
0.588600846776
11
-0.417340599118
21
0.58283342067
0
LINE
8
cam
10
-0.417340599118
20
0.58283342067
11
-0.42057144609
21
0.576287797962
0
LINE
8
cam
10
-0.42057144609
20
0.576287797962
11
-0.419424858002
21
0.560649366128
0
LINE
8
cam
10
-0.419424858002
20
0.560649366128
11
-0.425083379061
21
0.552919539675
0
LINE
8
cam
10
-0.425083379061
20
0.552919539675
11
-0.432285906206
21
0.545155093139
0
LINE
8
cam
10
-0.432285906206
20
0.545155093139
11
-0.440877192774
21
0.537996301259
0
LINE
8
cam
10
-0.440877192774
20
0.537996301259
11
-0.450340461994
21
0.532037690535
0
LINE
8
cam
10
-0.450340461994
20
0.532037690535
11
-0.459950592758
21
0.527587026091
0
LINE
8
cam
10
-0.459950592758
20
0.527587026091
11
-0.469050673745
21
0.524594100503
0
LINE
8
cam
10
-0.469050673745
20
0.524594100503
11
-0.483569391041
21
0.530517111778
0
LINE
8
cam
10
-0.483569391041
20
0.530517111778
11
-0.490793034791
21
0.529467102368
0
LINE
8
cam
10
-0.490793034791
20
0.529467102368
11
-0.497022009266
21
0.528960073107
0
LINE
8
cam
10
-0.497022009266
20
0.528960073107
11
-0.502402370111
21
0.528781348017
0
LINE
8
cam
10
-0.502402370111
20
0.528781348017
11
-0.507102174978
21
0.528790534297
0
LINE
8
cam
10
-0.507102174978
20
0.528790534297
11
-0.511279080359
21
0.528900940009
0
LINE
8
cam
10
-0.511279080359
20
0.528900940009
11
-0.515068376168
21
0.529060559424
0
LINE
8
cam
10
-0.515068376168
20
0.529060559424
11
-0.518581196534
21
0.529238276542
0
LINE
8
cam
10
-0.518581196534
20
0.529238276542
11
-0.521906866582
21
0.529414891862
0
LINE
8
cam
10
-0.521906866582
20
0.529414891862
11
-0.525116427794
21
0.529577628733
0
LINE
8
cam
10
-0.525116427794
20
0.529577628733
11
-0.528266092793
21
0.529716902939
0
LINE
8
cam
10
-0.528266092793
20
0.529716902939
11
-0.531400201484
21
0.529824489599
0
LINE
8
cam
10
-0.531400201484
20
0.529824489599
11
-0.53455360394
21
0.52989252808
0
LINE
8
cam
10
-0.53455360394
20
0.52989252808
11
-0.537753527662
21
0.529913020207
0
LINE
8
cam
10
-0.537753527662
20
0.529913020207
11
-0.541021022953
21
0.529877614426
0
LINE
8
cam
10
-0.541021022953
20
0.529877614426
11
-0.544372078278
21
0.529777552799
0
LINE
8
cam
10
-0.544372078278
20
0.529777552799
11
-0.547818483362
21
0.529603708215
0
LINE
8
cam
10
-0.547818483362
20
0.529603708215
11
-0.551368501682
21
0.529346669321
0
LINE
8
cam
10
-0.551368501682
20
0.529346669321
11
-0.555027399681
21
0.528996848354
0
LINE
8
cam
10
-0.555027399681
20
0.528996848354
11
-0.558797868466
21
0.5285445976
0
LINE
8
cam
10
-0.558797868466
20
0.5285445976
11
-0.562680364797
21
0.527980326318
0
LINE
8
cam
10
-0.562680364797
20
0.527980326318
11
-0.566673391376
21
0.527294613635
0
LINE
8
cam
10
-0.566673391376
20
0.527294613635
11
-0.570773731408
21
0.526478314975
0
LINE
8
cam
10
-0.570773731408
20
0.526478314975
11
-0.574976648601
21
0.525522660857
0
LINE
8
cam
10
-0.574976648601
20
0.525522660857
11
-0.579276061004
21
0.524419347536
0
LINE
8
cam
10
-0.579276061004
20
0.524419347536
11
-0.583664694951
21
0.523160619381
0
LINE
8
cam
10
-0.583664694951
20
0.523160619381
11
-0.588134223857
21
0.521739343062
0
LINE
8
cam
10
-0.588134223857
20
0.521739343062
11
-0.592675395388
21
0.520149073712
0
LINE
8
cam
10
-0.592675395388
20
0.520149073712
11
-0.590018027292
21
0.51150729551
0
LINE
8
cam
10
-0.590018027292
20
0.51150729551
11
-0.59462978435
21
0.509607169351
0
LINE
8
cam
10
-0.59462978435
20
0.509607169351
11
-0.599280071661
21
0.507524968446
0
LINE
8
cam
10
-0.599280071661
20
0.507524968446
11
-0.603957126632
21
0.505257480617
0
LINE
8
cam
10
-0.603957126632
20
0.505257480617
11
-0.608648799757
21
0.50280239368
0
LINE
8
cam
10
-0.608648799757
20
0.50280239368
11
-0.613342648442
21
0.500158318082
0
LINE
8
cam
10
-0.613342648442
20
0.500158318082
11
-0.618026028076
21
0.497324802872
0
LINE
8
cam
10
-0.618026028076
20
0.497324802872
11
-0.622686180562
21
0.494302345144
0
LINE
8
cam
10
-0.622686180562
20
0.494302345144
11
-0.627310320405
21
0.491092393135
0
LINE
8
cam
10
-0.627310320405
20
0.491092393135
11
-0.631885718334
21
0.48769734313
0
LINE
8
cam
10
-0.631885718334
20
0.48769734313
11
-0.636399782425
21
0.484120530344
0
LINE
8
cam
10
-0.636399782425
20
0.484120530344
11
-0.640840136587
21
0.480366213956
0
LINE
8
cam
10
-0.640840136587
20
0.480366213956
11
-0.645194696263
21
0.476439556484
0
LINE
8
cam
10
-0.645194696263
20
0.476439556484
11
-0.649451741154
21
0.472346597692
0
LINE
8
cam
10
-0.649451741154
20
0.472346597692
11
-0.653599984773
21
0.46809422324
0
LINE
8
cam
10
-0.653599984773
20
0.46809422324
11
-0.657628640585
21
0.463690128293
0
LINE
8
cam
10
-0.657628640585
20
0.463690128293
11
-0.661527484527
21
0.459142776329
0
LINE
8
cam
10
-0.661527484527
20
0.459142776329
11
-0.665286913655
21
0.454461353386
0
LINE
8
cam
10
-0.665286913655
20
0.454461353386
11
-0.668898000697
21
0.449655718004
0
LINE
8
cam
10
-0.668898000697
20
0.449655718004
11
-0.672352544278
21
0.444736347139
0
LINE
8
cam
10
-0.672352544278
20
0.444736347139
11
-0.675643114584
21
0.439714278323
0
LINE
8
cam
10
-0.675643114584
20
0.439714278323
11
-0.678763094264
21
0.43460104835
0
LINE
8
cam
10
-0.678763094264
20
0.43460104835
11
-0.681706714352
21
0.429408628804
0
LINE
8
cam
10
-0.681706714352
20
0.429408628804
11
-0.684469085009
21
0.424149358707
0
LINE
8
cam
10
-0.684469085009
20
0.424149358707
11
-0.687046220922
21
0.418835874599
0
LINE
8
cam
10
-0.687046220922
20
0.418835874599
11
-0.689435061155
21
0.413481038354
0
LINE
8
cam
10
-0.689435061155
20
0.413481038354
11
-0.691633483323
21
0.408097863027
0
LINE
8
cam
10
-0.691633483323
20
0.408097863027
11
-0.693640311913
21
0.402699437021
0
LINE
8
cam
10
-0.693640311913
20
0.402699437021
11
-0.695455320627
21
0.397298846858
0
LINE
8
cam
10
-0.695455320627
20
0.397298846858
11
-0.697079228607
21
0.391909098807
0
LINE
8
cam
10
-0.697079228607
20
0.391909098807
11
-0.698513690409
21
0.386543039615
0
LINE
8
cam
10
-0.698513690409
20
0.386543039615
11
-0.699761279616
21
0.381213276543
0
LINE
8
cam
10
-0.699761279616
20
0.381213276543
11
-0.70082546593
21
0.37593209687
0
LINE
8
cam
10
-0.70082546593
20
0.37593209687
11
-0.701710585632
21
0.370711386985
0
LINE
8
cam
10
-0.701710585632
20
0.370711386985
11
-0.702421805238
21
0.365562551105
0
LINE
8
cam
10
-0.702421805238
20
0.365562551105
11
-0.702965078169
21
0.36049642959
0
LINE
8
cam
10
-0.702965078169
20
0.36049642959
11
-0.703347094229
21
0.355523216713
0
LINE
8
cam
10
-0.703347094229
20
0.355523216713
11
-0.712387085603
21
0.355380067631
0
LINE
8
cam
10
-0.712387085603
20
0.355380067631
11
-0.712496222453
21
0.350569736601
0
LINE
8
cam
10
-0.712496222453
20
0.350569736601
11
-0.712466776169
21
0.345879763474
0
LINE
8
cam
10
-0.712466776169
20
0.345879763474
11
-0.712307735311
21
0.341316956169
0
LINE
8
cam
10
-0.712307735311
20
0.341316956169
11
-0.712028457136
21
0.336887029421
0
LINE
8
cam
10
-0.712028457136
20
0.336887029421
11
-0.711638565374
21
0.332594504274
0
LINE
8
cam
10
-0.711638565374
20
0.332594504274
11
-0.711147836781
21
0.328442599009
0
LINE
8
cam
10
-0.711147836781
20
0.328442599009
11
-0.710566075225
21
0.324433108189
0
LINE
8
cam
10
-0.710566075225
20
0.324433108189
11
-0.709902971758
21
0.320566265338
0
LINE
8
cam
10
-0.709902971758
20
0.320566265338
11
-0.709167948853
21
0.316840583262
0
LINE
8
cam
10
-0.709167948853
20
0.316840583262
11
-0.708369986701
21
0.313252663854
0
LINE
8
cam
10
-0.708369986701
20
0.313252663854
11
-0.707517429225
21
0.309796966411
0
LINE
8
cam
10
-0.707517429225
20
0.309796966411
11
-0.706617767508
21
0.306465519467
0
LINE
8
cam
10
-0.706617767508
20
0.306465519467
11
-0.705677398727
21
0.303247555721
0
LINE
8
cam
10
-0.705677398727
20
0.303247555721
11
-0.704701360051
21
0.300129042044
0
LINE
8
cam
10
-0.704701360051
20
0.300129042044
11
-0.70369304007
21
0.297092066152
0
LINE
8
cam
10
-0.70369304007
20
0.297092066152
11
-0.70265387668
21
0.294114027245
0
LINE
8
cam
10
-0.70265387668
20
0.294114027245
11
-0.701583062838
21
0.291166558858
0
LINE
8
cam
10
-0.701583062838
20
0.291166558858
11
-0.700477305186
21
0.288214087533
0
LINE
8
cam
10
-0.700477305186
20
0.288214087533
11
-0.699330724265
21
0.285211901886
0
LINE
8
cam
10
-0.699330724265
20
0.285211901886
11
-0.698135064552
21
0.282103578852
0
LINE
8
cam
10
-0.698135064552
20
0.282103578852
11
-0.696880524337
21
0.278817605762
0
LINE
8
cam
10
-0.696880524337
20
0.278817605762
11
-0.69555776045
21
0.275263096402
0
LINE
8
cam
10
-0.69555776045
20
0.275263096402
11
-0.694162023632
21
0.271324740563
0
LINE
8
cam
10
-0.694162023632
20
0.271324740563
11
-0.692700967387
21
0.266857799235
0
LINE
8
cam
10
-0.692700967387
20
0.266857799235
11
-0.691208322111
21
0.261685542904
0
LINE
8
cam
10
-0.691208322111
20
0.261685542904
11
-0.689765676624
21
0.255604755482
0
LINE
8
cam
10
-0.689765676624
20
0.255604755482
11
-0.688532066235
21
0.24841019127
0
LINE
8
cam
10
-0.688532066235
20
0.24841019127
11
-0.678412417385
21
0.236432381719
0
LINE
8
cam
10
-0.678412417385
20
0.236432381719
11
-0.678446779093
21
0.226852825527
0
LINE
8
cam
10
-0.678446779093
20
0.226852825527
11
-0.67970991879
21
0.216337717093
0
LINE
8
cam
10
-0.67970991879
20
0.216337717093
11
-0.682452583336
21
0.205496301259
0
LINE
8
cam
10
-0.682452583336
20
0.205496301259
11
-0.686606145449
21
0.195113313835
0
LINE
8
cam
10
-0.686606145449
20
0.195113313835
11
-0.691764869632
21
0.185863957528
0
LINE
8
cam
10
-0.691764869632
20
0.185863957528
11
-0.69736779228
21
0.178093736465
0
LINE
8
cam
10
-0.69736779228
20
0.178093736465
11
-0.712595139985
21
0.174351665336
0
LINE
8
cam
10
-0.712595139985
20
0.174351665336
11
-0.717822010494
21
0.169256238615
0
LINE
8
cam
10
-0.717822010494
20
0.169256238615
11
-0.72256333238
21
0.165184743993
0
LINE
8
cam
10
-0.72256333238
20
0.165184743993
11
-0.726811083767
21
0.161877655601
0
LINE
8
cam
10
-0.726811083767
20
0.161877655601
11
-0.730618705334
21
0.159122611468
0
LINE
8
cam
10
-0.730618705334
20
0.159122611468
11
-0.734062787621
21
0.156756808182
0
LINE
8
cam
10
-0.734062787621
20
0.156756808182
11
-0.737222214266
21
0.154658650808
0
LINE
8
cam
10
-0.737222214266
20
0.154658650808
11
-0.740168605141
21
0.152737642972
0
LINE
8
cam
10
-0.740168605141
20
0.152737642972
11
-0.742962940607
21
0.15092574796
0
LINE
8
cam
10
-0.742962940607
20
0.15092574796
11
-0.745655184505
21
0.149170872107
0
LINE
8
cam
10
-0.745655184505
20
0.149170872107
11
-0.74828518034
21
0.14743222067
0
LINE
8
cam
10
-0.74828518034
20
0.14743222067
11
-0.750883965386
21
0.145677077239
0
LINE
8
cam
10
-0.750883965386
20
0.145677077239
11
-0.753475113579
21
0.143878598069
0
LINE
8
cam
10
-0.753475113579
20
0.143878598069
11
-0.75607595122
21
0.142014308574
0
LINE
8
cam
10
-0.75607595122
20
0.142014308574
11
-0.758698599444
21
0.140065079152
0
LINE
8
cam
10
-0.758698599444
20
0.140065079152
11
-0.761350845402
21
0.138014426696
0
LINE
8
cam
10
-0.761350845402
20
0.138014426696
11
-0.764036862402
21
0.135848037391
0
LINE
8
cam
10
-0.764036862402
20
0.135848037391
11
-0.766757803882
21
0.133553440144
0
LINE
8
cam
10
-0.766757803882
20
0.133553440144
11
-0.769512294939
21
0.131119782753
0
LINE
8
cam
10
-0.769512294939
20
0.131119782753
11
-0.772296841939
21
0.128537678261
0
LINE
8
cam
10
-0.772296841939
20
0.128537678261
11
-0.775106177113
21
0.12579909912
0
LINE
8
cam
10
-0.775106177113
20
0.12579909912
11
-0.777933551672
21
0.12289730377
0
LINE
8
cam
10
-0.777933551672
20
0.12289730377
11
-0.780770988127
21
0.119826784882
0
LINE
8
cam
10
-0.780770988127
20
0.119826784882
11
-0.783609500165
21
0.116583231717
0
LINE
8
cam
10
-0.783609500165
20
0.116583231717
11
-0.786439286566
21
0.113163501286
0
LINE
8
cam
10
-0.786439286566
20
0.113163501286
11
-0.789249904166
21
0.109565594505
0
LINE
8
cam
10
-0.789249904166
20
0.109565594505
11
-0.792030423748
21
0.105788634634
0
LINE
8
cam
10
-0.792030423748
20
0.105788634634
11
-0.794769571819
21
0.101832846051
0
LINE
8
cam
10
-0.794769571819
20
0.101832846051
11
-0.787540206089
21
0.0964034624003
0
LINE
8
cam
10
-0.787540206089
20
0.0964034624003
11
-0.790154329789
21
0.0921555052598
0
LINE
8
cam
10
-0.790154329789
20
0.0921555052598
11
-0.792692604268
21
0.0877375990418
0
LINE
8
cam
10
-0.792692604268
20
0.0877375990418
11
-0.795143625317
21
0.0831540589181
0
LINE
8
cam
10
-0.795143625317
20
0.0831540589181
11
-0.797496204713
21
0.0784101555911
0
LINE
8
cam
10
-0.797496204713
20
0.0784101555911
11
-0.799739459426
21
0.0735120784647
0
LINE
8
cam
10
-0.799739459426
20
0.0735120784647
11
-0.801862894688
21
0.0684668950266
0
LINE
8
cam
10
-0.801862894688
20
0.0684668950266
11
-0.803856481168
21
0.0632825064546
0
LINE
8
cam
10
-0.803856481168
20
0.0632825064546
11
-0.805710726433
21
0.0579675995244
0
LINE
8
cam
10
-0.805710726433
20
0.0579675995244
11
-0.80741674079
21
0.0525315949479
0
LINE
8
cam
10
-0.80741674079
20
0.0525315949479
11
-0.808966297548
21
0.0469845923175
0
LINE
8
cam
10
-0.808966297548
20
0.0469845923175
11
-0.810351887721
21
0.0413373118657
0
LINE
8
cam
10
-0.810351887721
20
0.0413373118657
11
-0.811566769148
21
0.0356010332821
0
LINE
8
cam
10
-0.811566769148
20
0.0356010332821
11
-0.812605009995
21
0.0297875318565
0
LINE
8
cam
10
-0.812605009995
20
0.0297875318565
11
-0.81346152659
21
0.023909012236
0
LINE
8
cam
10
-0.81346152659
20
0.023909012236
11
-0.814132115547
21
0.017978040106
0
LINE
8
cam
10
-0.814132115547
20
0.017978040106
11
-0.814613480132
21
0.0120074721181
0
LINE
8
cam
10
-0.814613480132
20
0.0120074721181
11
-0.81490325082
21
0.006010384401
0
LINE
8
cam
10
-0.81490325082
20
0.006010384401
11
-0.815
21
4.3341372567e-16
0
LINE
8
cam
10
-0.815
20
4.3341372567e-16
11
-0.81490325082
21
-0.006010384401
0
LINE
8
cam
10
-0.81490325082
20
-0.006010384401
11
-0.814613480132
21
-0.0120074721181
0
LINE
8
cam
10
-0.814613480132
20
-0.0120074721181
11
-0.814132115547
21
-0.017978040106
0
LINE
8
cam
10
-0.814132115547
20
-0.017978040106
11
-0.81346152659
21
-0.023909012236
0
LINE
8
cam
10
-0.81346152659
20
-0.023909012236
11
-0.812605009995
21
-0.0297875318565
0
LINE
8
cam
10
-0.812605009995
20
-0.0297875318565
11
-0.811566769148
21
-0.0356010332821
0
LINE
8
cam
10
-0.811566769148
20
-0.0356010332821
11
-0.810351887721
21
-0.0413373118657
0
LINE
8
cam
10
-0.810351887721
20
-0.0413373118657
11
-0.808966297548
21
-0.0469845923175
0
LINE
8
cam
10
-0.808966297548
20
-0.0469845923175
11
-0.80741674079
21
-0.0525315949479
0
LINE
8
cam
10
-0.80741674079
20
-0.0525315949479
11
-0.805710726433
21
-0.0579675995244
0
LINE
8
cam
10
-0.805710726433
20
-0.0579675995244
11
-0.803856481168
21
-0.0632825064546
0
LINE
8
cam
10
-0.803856481168
20
-0.0632825064546
11
-0.801862894688
21
-0.0684668950266
0
LINE
8
cam
10
-0.801862894688
20
-0.0684668950266
11
-0.799739459426
21
-0.0735120784647
0
LINE
8
cam
10
-0.799739459426
20
-0.0735120784647
11
-0.797496204713
21
-0.0784101555911
0
LINE
8
cam
10
-0.797496204713
20
-0.0784101555911
11
-0.795143625317
21
-0.0831540589181
0
LINE
8
cam
10
-0.795143625317
20
-0.0831540589181
11
-0.792692604268
21
-0.0877375990418
0
LINE
8
cam
10
-0.792692604268
20
-0.0877375990418
11
-0.790154329789
21
-0.0921555052598
0
LINE
8
cam
10
-0.790154329789
20
-0.0921555052598
11
-0.787540206089
21
-0.0964034624003
0
LINE
8
cam
10
-0.787540206089
20
-0.0964034624003
11
-0.794769571819
21
-0.101832846051
0
LINE
8
cam
10
-0.794769571819
20
-0.101832846051
11
-0.792030423748
21
-0.105788634634
0
LINE
8
cam
10
-0.792030423748
20
-0.105788634634
11
-0.789249904166
21
-0.109565594505
0
LINE
8
cam
10
-0.789249904166
20
-0.109565594505
11
-0.786439286566
21
-0.113163501286
0
LINE
8
cam
10
-0.786439286566
20
-0.113163501286
11
-0.783609500165
21
-0.116583231717
0
LINE
8
cam
10
-0.783609500165
20
-0.116583231717
11
-0.780770988127
21
-0.119826784882
0
LINE
8
cam
10
-0.780770988127
20
-0.119826784882
11
-0.777933551672
21
-0.12289730377
0
LINE
8
cam
10
-0.777933551672
20
-0.12289730377
11
-0.775106177113
21
-0.12579909912
0
LINE
8
cam
10
-0.775106177113
20
-0.12579909912
11
-0.772296841939
21
-0.128537678261
0
LINE
8
cam
10
-0.772296841939
20
-0.128537678261
11
-0.769512294939
21
-0.131119782753
0
LINE
8
cam
10
-0.769512294939
20
-0.131119782753
11
-0.766757803882
21
-0.133553440144
0
LINE
8
cam
10
-0.766757803882
20
-0.133553440144
11
-0.764036862402
21
-0.135848037391
0
LINE
8
cam
10
-0.764036862402
20
-0.135848037391
11
-0.761350845402
21
-0.138014426696
0
LINE
8
cam
10
-0.761350845402
20
-0.138014426696
11
-0.758698599444
21
-0.140065079152
0
LINE
8
cam
10
-0.758698599444
20
-0.140065079152
11
-0.75607595122
21
-0.142014308574
0
LINE
8
cam
10
-0.75607595122
20
-0.142014308574
11
-0.753475113579
21
-0.143878598069
0
LINE
8
cam
10
-0.753475113579
20
-0.143878598069
11
-0.750883965386
21
-0.145677077239
0
LINE
8
cam
10
-0.750883965386
20
-0.145677077239
11
-0.74828518034
21
-0.14743222067
0
LINE
8
cam
10
-0.74828518034
20
-0.14743222067
11
-0.745655184505
21
-0.149170872107
0
LINE
8
cam
10
-0.745655184505
20
-0.149170872107
11
-0.742962940607
21
-0.15092574796
0
LINE
8
cam
10
-0.742962940607
20
-0.15092574796
11
-0.740168605141
21
-0.152737642972
0
LINE
8
cam
10
-0.740168605141
20
-0.152737642972
11
-0.737222214266
21
-0.154658650808
0
LINE
8
cam
10
-0.737222214266
20
-0.154658650808
11
-0.734062787621
21
-0.156756808182
0
LINE
8
cam
10
-0.734062787621
20
-0.156756808182
11
-0.730618705334
21
-0.159122611468
0
LINE
8
cam
10
-0.730618705334
20
-0.159122611468
11
-0.726811083767
21
-0.161877655601
0
LINE
8
cam
10
-0.726811083767
20
-0.161877655601
11
-0.72256333238
21
-0.165184743993
0
LINE
8
cam
10
-0.72256333238
20
-0.165184743993
11
-0.717822010494
21
-0.169256238615
0
LINE
8
cam
10
-0.717822010494
20
-0.169256238615
11
-0.712595139985
21
-0.174351665336
0
LINE
8
cam
10
-0.712595139985
20
-0.174351665336
11
-0.69736779228
21
-0.178093736465
0
LINE
8
cam
10
-0.69736779228
20
-0.178093736465
11
-0.691764869632
21
-0.185863957528
0
LINE
8
cam
10
-0.691764869632
20
-0.185863957528
11
-0.686606145449
21
-0.195113313835
0
LINE
8
cam
10
-0.686606145449
20
-0.195113313835
11
-0.682452583336
21
-0.205496301259
0
LINE
8
cam
10
-0.682452583336
20
-0.205496301259
11
-0.67970991879
21
-0.216337717093
0
LINE
8
cam
10
-0.67970991879
20
-0.216337717093
11
-0.678446779093
21
-0.226852825527
0
LINE
8
cam
10
-0.678446779093
20
-0.226852825527
11
-0.678412417385
21
-0.236432381719
0
LINE
8
cam
10
-0.678412417385
20
-0.236432381719
11
-0.688532066235
21
-0.24841019127
0
LINE
8
cam
10
-0.688532066235
20
-0.24841019127
11
-0.689765676624
21
-0.255604755482
0
LINE
8
cam
10
-0.689765676624
20
-0.255604755482
11
-0.691208322111
21
-0.261685542904
0
LINE
8
cam
10
-0.691208322111
20
-0.261685542904
11
-0.692700967387
21
-0.266857799235
0
LINE
8
cam
10
-0.692700967387
20
-0.266857799235
11
-0.694162023632
21
-0.271324740563
0
LINE
8
cam
10
-0.694162023632
20
-0.271324740563
11
-0.69555776045
21
-0.275263096402
0
LINE
8
cam
10
-0.69555776045
20
-0.275263096402
11
-0.696880524337
21
-0.278817605762
0
LINE
8
cam
10
-0.696880524337
20
-0.278817605762
11
-0.698135064552
21
-0.282103578852
0
LINE
8
cam
10
-0.698135064552
20
-0.282103578852
11
-0.699330724265
21
-0.285211901886
0
LINE
8
cam
10
-0.699330724265
20
-0.285211901886
11
-0.700477305186
21
-0.288214087533
0
LINE
8
cam
10
-0.700477305186
20
-0.288214087533
11
-0.701583062838
21
-0.291166558858
0
LINE
8
cam
10
-0.701583062838
20
-0.291166558858
11
-0.70265387668
21
-0.294114027245
0
LINE
8
cam
10
-0.70265387668
20
-0.294114027245
11
-0.70369304007
21
-0.297092066152
0
LINE
8
cam
10
-0.70369304007
20
-0.297092066152
11
-0.704701360051
21
-0.300129042044
0
LINE
8
cam
10
-0.704701360051
20
-0.300129042044
11
-0.705677398727
21
-0.303247555721
0
LINE
8
cam
10
-0.705677398727
20
-0.303247555721
11
-0.706617767508
21
-0.306465519467
0
LINE
8
cam
10
-0.706617767508
20
-0.306465519467
11
-0.707517429225
21
-0.309796966411
0
LINE
8
cam
10
-0.707517429225
20
-0.309796966411
11
-0.708369986701
21
-0.313252663854
0
LINE
8
cam
10
-0.708369986701
20
-0.313252663854
11
-0.709167948853
21
-0.316840583262
0
LINE
8
cam
10
-0.709167948853
20
-0.316840583262
11
-0.709902971758
21
-0.320566265338
0
LINE
8
cam
10
-0.709902971758
20
-0.320566265338
11
-0.710566075225
21
-0.324433108189
0
LINE
8
cam
10
-0.710566075225
20
-0.324433108189
11
-0.711147836781
21
-0.328442599009
0
LINE
8
cam
10
-0.711147836781
20
-0.328442599009
11
-0.711638565374
21
-0.332594504274
0
LINE
8
cam
10
-0.711638565374
20
-0.332594504274
11
-0.712028457136
21
-0.336887029421
0
LINE
8
cam
10
-0.712028457136
20
-0.336887029421
11
-0.712307735311
21
-0.341316956169
0
LINE
8
cam
10
-0.712307735311
20
-0.341316956169
11
-0.712466776169
21
-0.345879763474
0
LINE
8
cam
10
-0.712466776169
20
-0.345879763474
11
-0.712496222453
21
-0.350569736601
0
LINE
8
cam
10
-0.712496222453
20
-0.350569736601
11
-0.712387085603
21
-0.355380067631
0
LINE
8
cam
10
-0.712387085603
20
-0.355380067631
11
-0.703347094229
21
-0.355523216713
0
LINE
8
cam
10
-0.703347094229
20
-0.355523216713
11
-0.702965078169
21
-0.36049642959
0
LINE
8
cam
10
-0.702965078169
20
-0.36049642959
11
-0.702421805238
21
-0.365562551105
0
LINE
8
cam
10
-0.702421805238
20
-0.365562551105
11
-0.701710585632
21
-0.370711386985
0
LINE
8
cam
10
-0.701710585632
20
-0.370711386985
11
-0.70082546593
21
-0.37593209687
0
LINE
8
cam
10
-0.70082546593
20
-0.37593209687
11
-0.699761279616
21
-0.381213276543
0
LINE
8
cam
10
-0.699761279616
20
-0.381213276543
11
-0.698513690409
21
-0.386543039615
0
LINE
8
cam
10
-0.698513690409
20
-0.386543039615
11
-0.697079228607
21
-0.391909098807
0
LINE
8
cam
10
-0.697079228607
20
-0.391909098807
11
-0.695455320627
21
-0.397298846858
0
LINE
8
cam
10
-0.695455320627
20
-0.397298846858
11
-0.693640311913
21
-0.402699437021
0
LINE
8
cam
10
-0.693640311913
20
-0.402699437021
11
-0.691633483323
21
-0.408097863027
0
LINE
8
cam
10
-0.691633483323
20
-0.408097863027
11
-0.689435061155
21
-0.413481038354
0
LINE
8
cam
10
-0.689435061155
20
-0.413481038354
11
-0.687046220922
21
-0.418835874599
0
LINE
8
cam
10
-0.687046220922
20
-0.418835874599
11
-0.684469085009
21
-0.424149358707
0
LINE
8
cam
10
-0.684469085009
20
-0.424149358707
11
-0.681706714352
21
-0.429408628804
0
LINE
8
cam
10
-0.681706714352
20
-0.429408628804
11
-0.678763094264
21
-0.43460104835
0
LINE
8
cam
10
-0.678763094264
20
-0.43460104835
11
-0.675643114584
21
-0.439714278323
0
LINE
8
cam
10
-0.675643114584
20
-0.439714278323
11
-0.672352544278
21
-0.444736347139
0
LINE
8
cam
10
-0.672352544278
20
-0.444736347139
11
-0.668898000697
21
-0.449655718004
0
LINE
8
cam
10
-0.668898000697
20
-0.449655718004
11
-0.665286913655
21
-0.454461353386
0
LINE
8
cam
10
-0.665286913655
20
-0.454461353386
11
-0.661527484527
21
-0.459142776329
0
LINE
8
cam
10
-0.661527484527
20
-0.459142776329
11
-0.657628640585
21
-0.463690128293
0
LINE
8
cam
10
-0.657628640585
20
-0.463690128293
11
-0.653599984773
21
-0.46809422324
0
LINE
8
cam
10
-0.653599984773
20
-0.46809422324
11
-0.649451741154
21
-0.472346597692
0
LINE
8
cam
10
-0.649451741154
20
-0.472346597692
11
-0.645194696263
21
-0.476439556484
0
LINE
8
cam
10
-0.645194696263
20
-0.476439556484
11
-0.640840136587
21
-0.480366213956
0
LINE
8
cam
10
-0.640840136587
20
-0.480366213956
11
-0.636399782425
21
-0.484120530344
0
LINE
8
cam
10
-0.636399782425
20
-0.484120530344
11
-0.631885718334
21
-0.48769734313
0
LINE
8
cam
10
-0.631885718334
20
-0.48769734313
11
-0.627310320405
21
-0.491092393135
0
LINE
8
cam
10
-0.627310320405
20
-0.491092393135
11
-0.622686180562
21
-0.494302345144
0
LINE
8
cam
10
-0.622686180562
20
-0.494302345144
11
-0.618026028076
21
-0.497324802872
0
LINE
8
cam
10
-0.618026028076
20
-0.497324802872
11
-0.613342648442
21
-0.500158318082
0
LINE
8
cam
10
-0.613342648442
20
-0.500158318082
11
-0.608648799757
21
-0.50280239368
0
LINE
8
cam
10
-0.608648799757
20
-0.50280239368
11
-0.603957126632
21
-0.505257480617
0
LINE
8
cam
10
-0.603957126632
20
-0.505257480617
11
-0.599280071661
21
-0.507524968446
0
LINE
8
cam
10
-0.599280071661
20
-0.507524968446
11
-0.59462978435
21
-0.509607169351
0
LINE
8
cam
10
-0.59462978435
20
-0.509607169351
11
-0.590018027292
21
-0.51150729551
0
LINE
8
cam
10
-0.590018027292
20
-0.51150729551
11
-0.592675395388
21
-0.520149073712
0
LINE
8
cam
10
-0.592675395388
20
-0.520149073712
11
-0.588134223857
21
-0.521739343062
0
LINE
8
cam
10
-0.588134223857
20
-0.521739343062
11
-0.583664694951
21
-0.523160619381
0
LINE
8
cam
10
-0.583664694951
20
-0.523160619381
11
-0.579276061004
21
-0.524419347536
0
LINE
8
cam
10
-0.579276061004
20
-0.524419347536
11
-0.574976648601
21
-0.525522660857
0
LINE
8
cam
10
-0.574976648601
20
-0.525522660857
11
-0.570773731408
21
-0.526478314975
0
LINE
8
cam
10
-0.570773731408
20
-0.526478314975
11
-0.566673391376
21
-0.527294613635
0
LINE
8
cam
10
-0.566673391376
20
-0.527294613635
11
-0.562680364797
21
-0.527980326318
0
LINE
8
cam
10
-0.562680364797
20
-0.527980326318
11
-0.558797868466
21
-0.5285445976
0
LINE
8
cam
10
-0.558797868466
20
-0.5285445976
11
-0.555027399681
21
-0.528996848354
0
LINE
8
cam
10
-0.555027399681
20
-0.528996848354
11
-0.551368501682
21
-0.529346669321
0
LINE
8
cam
10
-0.551368501682
20
-0.529346669321
11
-0.547818483362
21
-0.529603708215
0
LINE
8
cam
10
-0.547818483362
20
-0.529603708215
11
-0.544372078278
21
-0.529777552799
0
LINE
8
cam
10
-0.544372078278
20
-0.529777552799
11
-0.541021022953
21
-0.529877614426
0
LINE
8
cam
10
-0.541021022953
20
-0.529877614426
11
-0.537753527662
21
-0.529913020207
0
LINE
8
cam
10
-0.537753527662
20
-0.529913020207
11
-0.53455360394
21
-0.52989252808
0
LINE
8
cam
10
-0.53455360394
20
-0.52989252808
11
-0.531400201484
21
-0.529824489599
0
LINE
8
cam
10
-0.531400201484
20
-0.529824489599
11
-0.528266092793
21
-0.529716902939
0
LINE
8
cam
10
-0.528266092793
20
-0.529716902939
11
-0.525116427794
21
-0.529577628733
0
LINE
8
cam
10
-0.525116427794
20
-0.529577628733
11
-0.521906866582
21
-0.529414891862
0
LINE
8
cam
10
-0.521906866582
20
-0.529414891862
11
-0.518581196534
21
-0.529238276542
0
LINE
8
cam
10
-0.518581196534
20
-0.529238276542
11
-0.515068376168
21
-0.529060559424
0
LINE
8
cam
10
-0.515068376168
20
-0.529060559424
11
-0.511279080359
21
-0.528900940009
0
LINE
8
cam
10
-0.511279080359
20
-0.528900940009
11
-0.507102174978
21
-0.528790534297
0
LINE
8
cam
10
-0.507102174978
20
-0.528790534297
11
-0.502402370111
21
-0.528781348017
0
LINE
8
cam
10
-0.502402370111
20
-0.528781348017
11
-0.497022009266
21
-0.528960073107
0
LINE
8
cam
10
-0.497022009266
20
-0.528960073107
11
-0.490793034791
21
-0.529467102368
0
LINE
8
cam
10
-0.490793034791
20
-0.529467102368
11
-0.483569391041
21
-0.530517111778
0
LINE
8
cam
10
-0.483569391041
20
-0.530517111778
11
-0.469050673745
21
-0.524594100503
0
LINE
8
cam
10
-0.469050673745
20
-0.524594100503
11
-0.459950592758
21
-0.527587026091
0
LINE
8
cam
10
-0.459950592758
20
-0.527587026091
11
-0.450340461994
21
-0.532037690535
0
LINE
8
cam
10
-0.450340461994
20
-0.532037690535
11
-0.440877192774
21
-0.537996301259
0
LINE
8
cam
10
-0.440877192774
20
-0.537996301259
11
-0.432285906206
21
-0.545155093139
0
LINE
8
cam
10
-0.432285906206
20
-0.545155093139
11
-0.425083379061
21
-0.552919539675
0
LINE
8
cam
10
-0.425083379061
20
-0.552919539675
11
-0.419424858002
21
-0.560649366128
0
LINE
8
cam
10
-0.419424858002
20
-0.560649366128
11
-0.42057144609
21
-0.576287797962
0
LINE
8
cam
10
-0.42057144609
20
-0.576287797962
11
-0.417340599118
21
-0.58283342067
0
LINE
8
cam
10
-0.417340599118
20
-0.58283342067
11
-0.414933526666
21
-0.588600846776
0
LINE
8
cam
10
-0.414933526666
20
-0.588600846776
11
-0.413100926068
21
-0.593662644927
0
LINE
8
cam
10
-0.413100926068
20
-0.593662644927
11
-0.411657343164
21
-0.598135263687
0
LINE
8
cam
10
-0.411657343164
20
-0.598135263687
11
-0.410471610489
21
-0.602141854009
0
LINE
8
cam
10
-0.410471610489
20
-0.602141854009
11
-0.409452460773
21
-0.605795013593
0
LINE
8
cam
10
-0.409452460773
20
-0.605795013593
11
-0.408535958605
21
-0.609190821902
0
LINE
8
cam
10
-0.408535958605
20
-0.609190821902
11
-0.407676241193
21
-0.612408299207
0
LINE
8
cam
10
-0.407676241193
20
-0.612408299207
11
-0.406839204196
21
-0.615511061771
0
LINE
8
cam
10
-0.406839204196
20
-0.615511061771
11
-0.405998361825
21
-0.618549609289
0
LINE
8
cam
10
-0.405998361825
20
-0.618549609289
11
-0.405132189972
21
-0.62156356989
0
LINE
8
cam
10
-0.405132189972
20
-0.62156356989
11
-0.404222443464
21
-0.62458365889
0
LINE
8
cam
10
-0.404222443464
20
-0.62458365889
11
-0.403253101823
21
-0.627633299613
0
LINE
8
cam
10
-0.403253101823
20
-0.627633299613
11
-0.402209717351
21
-0.630729931314
0
LINE
8
cam
10
-0.402209717351
20
-0.630729931314
11
-0.401079020044
21
-0.633886053574
0
LINE
8
cam
10
-0.401079020044
20
-0.633886053574
11
-0.399848686279
21
-0.637110058656
0
LINE
8
cam
10
-0.399848686279
20
-0.637110058656
11
-0.398507211773
21
-0.640406897326
0
LINE
8
cam
10
-0.398507211773
20
-0.640406897326
11
-0.397043850601
21
-0.643778615486
0
LINE
8
cam
10
-0.397043850601
20
-0.643778615486
11
-0.395448595642
21
-0.647224791225
0
LINE
8
cam
10
-0.395448595642
20
-0.647224791225
11
-0.393712184416
21
-0.650742895245
0
LINE
8
cam
10
-0.393712184416
20
-0.650742895245
11
-0.391826119828
21
-0.65432859232
0
LINE
8
cam
10
-0.391826119828
20
-0.65432859232
11
-0.389782698916
21
-0.657975997268
0
LINE
8
cam
10
-0.389782698916
20
-0.657975997268
11
-0.387575045001
21
-0.661677895689
0
LINE
8
cam
10
-0.387575045001
20
-0.661677895689
11
-0.385197140179
21
-0.665425937304
0
LINE
8
cam
10
-0.385197140179
20
-0.665425937304
11
-0.382643856093
21
-0.669210807827
0
LINE
8
cam
10
-0.382643856093
20
-0.669210807827
11
-0.3799109816
21
-0.673022383881
0
LINE
8
cam
10
-0.3799109816
20
-0.673022383881
11
-0.376995246395
21
-0.676849874402
0
LINE
8
cam
10
-0.376995246395
20
-0.676849874402
11
-0.369597598825
21
-0.671652110832
0
LINE
8
cam
10
-0.369597598825
20
-0.671652110832
11
-0.366365360155
21
-0.67545098116
0
LINE
8
cam
10
-0.366365360155
20
-0.67545098116
11
-0.362948051608
21
-0.679230231744
0
LINE
8
cam
10
-0.362948051608
20
-0.679230231744
11
-0.359346253064
21
-0.682977683077
0
LINE
8
cam
10
-0.359346253064
20
-0.682977683077
11
-0.355561519906
21
-0.686681065789
0
LINE
8
cam
10
-0.355561519906
20
-0.686681065789
11
-0.351596375566
21
-0.690328116873
0
LINE
8
cam
10
-0.351596375566
20
-0.690328116873
11
-0.347454298564
21
-0.693906671238
0
LINE
8
cam
10
-0.347454298564
20
-0.693906671238
11
-0.343139704132
21
-0.697404748825
0
LINE
8
cam
10
-0.343139704132
20
-0.697404748825
11
-0.338657920561
21
-0.700810637433
0
LINE
8
cam
10
-0.338657920561
20
-0.700810637433
11
-0.334015160415
21
-0.704112971299
0
LINE
8
cam
10
-0.334015160415
20
-0.704112971299
11
-0.329218486789
21
-0.707300805431
0
LINE
8
cam
10
-0.329218486789
20
-0.707300805431
11
-0.324275774827
21
-0.710363685626
0
LINE
8
cam
10
-0.324275774827
20
-0.710363685626
11
-0.319195668708
21
-0.713291714091
0
LINE
8
cam
10
-0.319195668708
20
-0.713291714091
11
-0.313987534361
21
-0.716075610551
0
LINE
8
cam
10
-0.313987534361
20
-0.716075610551
11
-0.308661408153
21
-0.718706768704
0
LINE
8
cam
10
-0.308661408153
20
-0.718706768704
11
-0.303227941845
21
-0.721177307883
0
LINE
8
cam
10
-0.303227941845
20
-0.721177307883
11
-0.297698344091
21
-0.723480119783
0
LINE
8
cam
10
-0.297698344091
20
-0.723480119783
11
-0.292084318806
21
-0.725608910105
0
LINE
8
cam
10
-0.292084318806
20
-0.725608910105
11
-0.286398000697
21
-0.727558234966
0
LINE
8
cam
10
-0.286398000697
20
-0.727558234966
11
-0.280651888306
21
-0.72932353195
0
LINE
8
cam
10
-0.280651888306
20
-0.72932353195
11
-0.274858774887
21
-0.730901145671
0
LINE
8
cam
10
-0.274858774887
20
-0.730901145671
11
-0.269031677459
21
-0.732288347719
0
LINE
8
cam
10
-0.269031677459
20
-0.732288347719
11
-0.263183764382
21
-0.733483350903
0
LINE
8
cam
10
-0.263183764382
20
-0.733483350903
11
-0.257328281808
21
-0.73448531768
0
LINE
8
cam
10
-0.257328281808
20
-0.73448531768
11
-0.251478479328
21
-0.735294362694
0
LINE
8
cam
10
-0.251478479328
20
-0.735294362694
11
-0.245647535195
21
-0.735911549362
0
LINE
8
cam
10
-0.245647535195
20
-0.735911549362
11
-0.239848481411
21
-0.736338880431
0
LINE
8
cam
10
-0.239848481411
20
-0.736338880431
11
-0.234094129042
21
-0.73657928246
0
LINE
8
cam
10
-0.234094129042
20
-0.73657928246
11
-0.228396994038
21
-0.736636584185
0
LINE
8
cam
10
-0.228396994038
20
-0.736636584185
11
-0.222769223869
21
-0.736515488707
0
LINE
8
cam
10
-0.222769223869
20
-0.736515488707
11
-0.217222525233
21
-0.736221539469
0
LINE
8
cam
10
-0.217222525233
20
-0.736221539469
11
-0.211768093066
21
-0.735761079948
0
LINE
8
cam
10
-0.211768093066
20
-0.735761079948
11
-0.206416541068
21
-0.735141207007
0
LINE
8
cam
10
-0.206416541068
20
-0.735141207007
11
-0.201177833883
21
-0.734369717791
0
LINE
8
cam
10
-0.201177833883
20
-0.734369717791
11
-0.196061221023
21
-0.733455050043
0
LINE
8
cam
10
-0.196061221023
20
-0.733455050043
11
-0.191075172575
21
-0.732406215661
0
LINE
8
cam
10
-0.191075172575
20
-0.732406215661
11
-0.186227316607
21
-0.731232727229
0
LINE
8
cam
10
-0.186227316607
20
-0.731232727229
11
-0.183297662776
21
-0.739786034432
0
LINE
8
cam
10
-0.183297662776
20
-0.739786034432
11
-0.178689040963
21
-0.738403355708
0
LINE
8
cam
10
-0.178689040963
20
-0.738403355708
11
-0.174237710861
21
-0.736926069229
0
LINE
8
cam
10
-0.174237710861
20
-0.736926069229
11
-0.16994736957
21
-0.735364827385
0
LINE
8
cam
10
-0.16994736957
20
-0.735364827385
11
-0.165820560571
21
-0.733730295408
0
LINE
8
cam
10
-0.165820560571
20
-0.733730295408
11
-0.161858609739
21
-0.732033023088
0
LINE
8
cam
10
-0.161858609739
20
-0.732033023088
11
-0.158061556657
21
-0.730283303176
0
LINE
8
cam
10
-0.158061556657
20
-0.730283303176
11
-0.154428078493
21
-0.728491014255
0
LINE
8
cam
10
-0.154428078493
20
-0.728491014255
11
-0.150955402643
21
-0.726665445226
0
LINE
8
cam
10
-0.150955402643
20
-0.726665445226
11
-0.147639202995
21
-0.724815097826
0
LINE
8
cam
10
-0.147639202995
20
-0.724815097826
11
-0.144473472728
21
-0.722947462649
0
LINE
8
cam
10
-0.144473472728
20
-0.722947462649
11
-0.141450363905
21
-0.721068763069
0
LINE
8
cam
10
-0.141450363905
20
-0.721068763069
11
-0.13855998034
21
-0.719183660209
0
LINE
8
cam
10
-0.13855998034
20
-0.719183660209
11
-0.135790104885
21
-0.717294910867
0
LINE
8
cam
10
-0.135790104885
20
-0.717294910867
11
-0.13312583467
21
-0.715402969201
0
LINE
8
cam
10
-0.13312583467
20
-0.715402969201
11
-0.130549086967
21
-0.71350552275
0
LINE
8
cam
10
-0.130549086967
20
-0.71350552275
11
-0.128037922807
21
-0.711596955005
0
LINE
8
cam
10
-0.128037922807
20
-0.711596955005
11
-0.125565613465
21
-0.7096677327
0
LINE
8
cam
10
-0.125565613465
20
-0.7096677327
11
-0.123099344278
21
-0.707703730865
0
LINE
8
cam
10
-0.123099344278
20
-0.707703730865
11
-0.120598409046
21
-0.705685541224
0
LINE
8
cam
10
-0.120598409046
20
-0.705685541224
11
-0.11801169734
21
-0.703587876621
0
LINE
8
cam
10
-0.11801169734
20
-0.703587876621
11
-0.115274225468
21
-0.701379316447
0
LINE
8
cam
10
-0.115274225468
20
-0.701379316447
11
-0.112302442699
21
-0.699022889434
0
LINE
8
cam
10
-0.112302442699
20
-0.699022889434
11
-0.108988150111
21
-0.696478445953
0
LINE
8
cam
10
-0.108988150111
20
-0.696478445953
11
-0.105191327663
21
-0.693708538108
0
LINE
8
cam
10
-0.105191327663
20
-0.693708538108
11
-0.100733472332
21
-0.690690632986
0
LINE
8
cam
10
-0.100733472332
20
-0.690690632986
11
-0.0953961018025
21
-0.687439528942
0
LINE
8
cam
10
-0.0953961018025
20
-0.687439528942
11
-0.088934871201
21
-0.684043053135
0
LINE
8
cam
10
-0.088934871201
20
-0.684043053135
11
-0.0806704408486
21
-0.670717348447
0
LINE
8
cam
10
-0.0806704408486
20
-0.670717348447
11
-0.0715491231578
21
-0.667789782711
0
LINE
8
cam
10
-0.0715491231578
20
-0.667789782711
11
-0.0611583291287
21
-0.665741752747
0
LINE
8
cam
10
-0.0611583291287
20
-0.665741752747
11
-0.05
21
-0.665
0
LINE
8
cam
10
-0.05
20
-0.665
11
-0.0388416708713
21
-0.665741752747
0
LINE
8
cam
10
-0.0388416708713
20
-0.665741752747
11
-0.0284508768422
21
-0.667789782711
0
LINE
8
cam
10
-0.0284508768422
20
-0.667789782711
11
-0.0193295591514
21
-0.670717348447
0
LINE
8
cam
10
-0.0193295591514
20
-0.670717348447
11
-0.011065128799
21
-0.684043053135
0
LINE
8
cam
10
-0.011065128799
20
-0.684043053135
11
-0.00460389819753
21
-0.687439528942
0
LINE
8
cam
10
-0.00460389819753
20
-0.687439528942
11
0.000733472331852
21
-0.690690632986
0
LINE
8
cam
10
0.000733472331852
20
-0.690690632986
11
0.00519132766323
21
-0.693708538108
0
LINE
8
cam
10
0.00519132766323
20
-0.693708538108
11
0.0089881501112
21
-0.696478445953
0
LINE
8
cam
10
0.0089881501112
20
-0.696478445953
11
0.0123024426992
21
-0.699022889434
0
LINE
8
cam
10
0.0123024426992
20
-0.699022889434
11
0.0152742254676
21
-0.701379316447
0
LINE
8
cam
10
0.0152742254676
20
-0.701379316447
11
0.0180116973402
21
-0.703587876621
0
LINE
8
cam
10
0.0180116973402
20
-0.703587876621
11
0.020598409046
21
-0.705685541224
0
LINE
8
cam
10
0.020598409046
20
-0.705685541224
11
0.0230993442784
21
-0.707703730865
0
LINE
8
cam
10
0.0230993442784
20
-0.707703730865
11
0.0255656134652
21
-0.7096677327
0
LINE
8
cam
10
0.0255656134652
20
-0.7096677327
11
0.0280379228066
21
-0.711596955005
0
LINE
8
cam
10
0.0280379228066
20
-0.711596955005
11
0.0305490869671
21
-0.71350552275
0
LINE
8
cam
10
0.0305490869671
20
-0.71350552275
11
0.0331258346696
21
-0.715402969201
0
LINE
8
cam
10
0.0331258346696
20
-0.715402969201
11
0.0357901048848
21
-0.717294910867
0
LINE
8
cam
10
0.0357901048848
20
-0.717294910867
11
0.0385599803405
21
-0.719183660209
0
LINE
8
cam
10
0.0385599803405
20
-0.719183660209
11
0.0414503639055
21
-0.721068763069
0
LINE
8
cam
10
0.0414503639055
20
-0.721068763069
11
0.0444734727283
21
-0.722947462649
0
LINE
8
cam
10
0.0444734727283
20
-0.722947462649
11
0.047639202995
21
-0.724815097826
0
LINE
8
cam
10
0.047639202995
20
-0.724815097826
11
0.0509554026427
21
-0.726665445226
0
LINE
8
cam
10
0.0509554026427
20
-0.726665445226
11
0.0544280784925
21
-0.728491014255
0
LINE
8
cam
10
0.0544280784925
20
-0.728491014255
11
0.058061556657
21
-0.730283303176
0
LINE
8
cam
10
0.058061556657
20
-0.730283303176
11
0.061858609739
21
-0.732033023088
0
LINE
8
cam
10
0.061858609739
20
-0.732033023088
11
0.0658205605712
21
-0.733730295408
0
LINE
8
cam
10
0.0658205605712
20
-0.733730295408
11
0.0699473695695
21
-0.735364827385
0
LINE
8
cam
10
0.0699473695695
20
-0.735364827385
11
0.0742377108612
21
-0.736926069229
0
LINE
8
cam
10
0.0742377108612
20
-0.736926069229
11
0.0786890409627
21
-0.738403355708
0
LINE
8
cam
10
0.0786890409627
20
-0.738403355708
11
0.083297662776
21
-0.739786034432
0
LINE
8
cam
10
0.083297662776
20
-0.739786034432
11
0.086227316607
21
-0.731232727229
0
LINE
8
cam
10
0.086227316607
20
-0.731232727229
11
0.0910751725753
21
-0.732406215661
0
LINE
8
cam
10
0.0910751725753
20
-0.732406215661
11
0.0960612210226
21
-0.733455050043
0
LINE
8
cam
10
0.0960612210226
20
-0.733455050043
11
0.101177833883
21
-0.734369717791
0
LINE
8
cam
10
0.101177833883
20
-0.734369717791
11
0.106416541068
21
-0.735141207007
0
LINE
8
cam
10
0.106416541068
20
-0.735141207007
11
0.111768093066
21
-0.735761079948
0
LINE
8
cam
10
0.111768093066
20
-0.735761079948
11
0.117222525233
21
-0.736221539469
0
LINE
8
cam
10
0.117222525233
20
-0.736221539469
11
0.122769223869
21
-0.736515488707
0
LINE
8
cam
10
0.122769223869
20
-0.736515488707
11
0.128396994038
21
-0.736636584185
0
LINE
8
cam
10
0.128396994038
20
-0.736636584185
11
0.134094129042
21
-0.73657928246
0
LINE
8
cam
10
0.134094129042
20
-0.73657928246
11
0.139848481411
21
-0.736338880431
0
LINE
8
cam
10
0.139848481411
20
-0.736338880431
11
0.145647535195
21
-0.735911549362
0
LINE
8
cam
10
0.145647535195
20
-0.735911549362
11
0.151478479328
21
-0.735294362694
0
LINE
8
cam
10
0.151478479328
20
-0.735294362694
11
0.157328281808
21
-0.73448531768
0
LINE
8
cam
10
0.157328281808
20
-0.73448531768
11
0.163183764382
21
-0.733483350903
0
LINE
8
cam
10
0.163183764382
20
-0.733483350903
11
0.169031677459
21
-0.732288347719
0
LINE
8
cam
10
0.169031677459
20
-0.732288347719
11
0.174858774887
21
-0.730901145671
0
LINE
8
cam
10
0.174858774887
20
-0.730901145671
11
0.180651888306
21
-0.72932353195
0
LINE
8
cam
10
0.180651888306
20
-0.72932353195
11
0.186398000697
21
-0.727558234966
0
LINE
8
cam
10
0.186398000697
20
-0.727558234966
11
0.192084318806
21
-0.725608910105
0
LINE
8
cam
10
0.192084318806
20
-0.725608910105
11
0.197698344091
21
-0.723480119783
0
LINE
8
cam
10
0.197698344091
20
-0.723480119783
11
0.203227941845
21
-0.721177307883
0
LINE
8
cam
10
0.203227941845
20
-0.721177307883
11
0.208661408153
21
-0.718706768704
0
LINE
8
cam
10
0.208661408153
20
-0.718706768704
11
0.213987534361
21
-0.716075610551
0
LINE
8
cam
10
0.213987534361
20
-0.716075610551
11
0.219195668708
21
-0.713291714091
0
LINE
8
cam
10
0.219195668708
20
-0.713291714091
11
0.224275774827
21
-0.710363685626
0
LINE
8
cam
10
0.224275774827
20
-0.710363685626
11
0.229218486789
21
-0.707300805431
0
LINE
8
cam
10
0.229218486789
20
-0.707300805431
11
0.234015160415
21
-0.704112971299
0
LINE
8
cam
10
0.234015160415
20
-0.704112971299
11
0.238657920561
21
-0.700810637433
0
LINE
8
cam
10
0.238657920561
20
-0.700810637433
11
0.243139704132
21
-0.697404748825
0
LINE
8
cam
10
0.243139704132
20
-0.697404748825
11
0.247454298564
21
-0.693906671238
0
LINE
8
cam
10
0.247454298564
20
-0.693906671238
11
0.251596375566
21
-0.690328116873
0
LINE
8
cam
10
0.251596375566
20
-0.690328116873
11
0.255561519906
21
-0.686681065789
0
LINE
8
cam
10
0.255561519906
20
-0.686681065789
11
0.259346253064
21
-0.682977683077
0
LINE
8
cam
10
0.259346253064
20
-0.682977683077
11
0.262948051608
21
-0.679230231744
0
LINE
8
cam
10
0.262948051608
20
-0.679230231744
11
0.266365360155
21
-0.67545098116
0
LINE
8
cam
10
0.266365360155
20
-0.67545098116
11
0.269597598825
21
-0.671652110832
0
LINE
8
cam
10
0.269597598825
20
-0.671652110832
11
0.276995246395
21
-0.676849874402
0
LINE
8
cam
10
0.276995246395
20
-0.676849874402
11
0.2799109816
21
-0.673022383881
0
LINE
8
cam
10
0.2799109816
20
-0.673022383881
11
0.282643856093
21
-0.669210807827
0
LINE
8
cam
10
0.282643856093
20
-0.669210807827
11
0.285197140179
21
-0.665425937304
0
LINE
8
cam
10
0.285197140179
20
-0.665425937304
11
0.287575045001
21
-0.661677895689
0
LINE
8
cam
10
0.287575045001
20
-0.661677895689
11
0.289782698916
21
-0.657975997268
0
LINE
8
cam
10
0.289782698916
20
-0.657975997268
11
0.291826119828
21
-0.65432859232
0
LINE
8
cam
10
0.291826119828
20
-0.65432859232
11
0.293712184416
21
-0.650742895245
0
LINE
8
cam
10
0.293712184416
20
-0.650742895245
11
0.295448595642
21
-0.647224791225
0
LINE
8
cam
10
0.295448595642
20
-0.647224791225
11
0.297043850601
21
-0.643778615486
0
LINE
8
cam
10
0.297043850601
20
-0.643778615486
11
0.298507211773
21
-0.640406897326
0
LINE
8
cam
10
0.298507211773
20
-0.640406897326
11
0.299848686279
21
-0.637110058656
0
LINE
8
cam
10
0.299848686279
20
-0.637110058656
11
0.301079020044
21
-0.633886053574
0
LINE
8
cam
10
0.301079020044
20
-0.633886053574
11
0.302209717351
21
-0.630729931314
0
LINE
8
cam
10
0.302209717351
20
-0.630729931314
11
0.303253101823
21
-0.627633299613
0
LINE
8
cam
10
0.303253101823
20
-0.627633299613
11
0.304222443464
21
-0.62458365889
0
LINE
8
cam
10
0.304222443464
20
-0.62458365889
11
0.305132189972
21
-0.62156356989
0
LINE
8
cam
10
0.305132189972
20
-0.62156356989
11
0.305998361825
21
-0.618549609289
0
LINE
8
cam
10
0.305998361825
20
-0.618549609289
11
0.306839204196
21
-0.615511061771
0
LINE
8
cam
10
0.306839204196
20
-0.615511061771
11
0.307676241193
21
-0.612408299207
0
LINE
8
cam
10
0.307676241193
20
-0.612408299207
11
0.308535958605
21
-0.609190821902
0
LINE
8
cam
10
0.308535958605
20
-0.609190821902
11
0.309452460773
21
-0.605795013593
0
LINE
8
cam
10
0.309452460773
20
-0.605795013593
11
0.310471610489
21
-0.602141854009
0
LINE
8
cam
10
0.310471610489
20
-0.602141854009
11
0.311657343164
21
-0.598135263687
0
LINE
8
cam
10
0.311657343164
20
-0.598135263687
11
0.313100926068
21
-0.593662644927
0
LINE
8
cam
10
0.313100926068
20
-0.593662644927
11
0.314933526666
21
-0.588600846776
0
LINE
8
cam
10
0.314933526666
20
-0.588600846776
11
0.317340599118
21
-0.58283342067
0
LINE
8
cam
10
0.317340599118
20
-0.58283342067
11
0.32057144609
21
-0.576287797962
0
LINE
8
cam
10
0.32057144609
20
-0.576287797962
11
0.319424858002
21
-0.560649366128
0
LINE
8
cam
10
0.319424858002
20
-0.560649366128
11
0.325083379061
21
-0.552919539675
0
LINE
8
cam
10
0.325083379061
20
-0.552919539675
11
0.332285906206
21
-0.545155093139
0
LINE
8
cam
10
0.332285906206
20
-0.545155093139
11
0.340877192774
21
-0.537996301259
0
LINE
8
cam
10
0.340877192774
20
-0.537996301259
11
0.350340461994
21
-0.532037690535
0
LINE
8
cam
10
0.350340461994
20
-0.532037690535
11
0.359950592758
21
-0.527587026091
0
LINE
8
cam
10
0.359950592758
20
-0.527587026091
11
0.369050673745
21
-0.524594100503
0
LINE
8
cam
10
0.369050673745
20
-0.524594100503
11
0.383569391041
21
-0.530517111778
0
LINE
8
cam
10
0.383569391041
20
-0.530517111778
11
0.390793034791
21
-0.529467102368
0
LINE
8
cam
10
0.390793034791
20
-0.529467102368
11
0.397022009266
21
-0.528960073107
0
LINE
8
cam
10
0.397022009266
20
-0.528960073107
11
0.402402370111
21
-0.528781348017
0
LINE
8
cam
10
0.402402370111
20
-0.528781348017
11
0.407102174978
21
-0.528790534297
0
LINE
8
cam
10
0.407102174978
20
-0.528790534297
11
0.411279080359
21
-0.528900940009
0
LINE
8
cam
10
0.411279080359
20
-0.528900940009
11
0.415068376168
21
-0.529060559424
0
LINE
8
cam
10
0.415068376168
20
-0.529060559424
11
0.418581196534
21
-0.529238276542
0
LINE
8
cam
10
0.418581196534
20
-0.529238276542
11
0.421906866582
21
-0.529414891862
0
LINE
8
cam
10
0.421906866582
20
-0.529414891862
11
0.425116427794
21
-0.529577628733
0
LINE
8
cam
10
0.425116427794
20
-0.529577628733
11
0.428266092793
21
-0.529716902939
0
LINE
8
cam
10
0.428266092793
20
-0.529716902939
11
0.431400201484
21
-0.529824489599
0
LINE
8
cam
10
0.431400201484
20
-0.529824489599
11
0.43455360394
21
-0.52989252808
0
LINE
8
cam
10
0.43455360394
20
-0.52989252808
11
0.437753527662
21
-0.529913020207
0
LINE
8
cam
10
0.437753527662
20
-0.529913020207
11
0.441021022953
21
-0.529877614426
0
LINE
8
cam
10
0.441021022953
20
-0.529877614426
11
0.444372078278
21
-0.529777552799
0
LINE
8
cam
10
0.444372078278
20
-0.529777552799
11
0.447818483362
21
-0.529603708215
0
LINE
8
cam
10
0.447818483362
20
-0.529603708215
11
0.451368501682
21
-0.529346669321
0
LINE
8
cam
10
0.451368501682
20
-0.529346669321
11
0.455027399681
21
-0.528996848354
0
LINE
8
cam
10
0.455027399681
20
-0.528996848354
11
0.458797868466
21
-0.5285445976
0
LINE
8
cam
10
0.458797868466
20
-0.5285445976
11
0.462680364797
21
-0.527980326318
0
LINE
8
cam
10
0.462680364797
20
-0.527980326318
11
0.466673391376
21
-0.527294613635
0
LINE
8
cam
10
0.466673391376
20
-0.527294613635
11
0.470773731408
21
-0.526478314975
0
LINE
8
cam
10
0.470773731408
20
-0.526478314975
11
0.474976648601
21
-0.525522660857
0
LINE
8
cam
10
0.474976648601
20
-0.525522660857
11
0.479276061004
21
-0.524419347536
0
LINE
8
cam
10
0.479276061004
20
-0.524419347536
11
0.483664694951
21
-0.523160619381
0
LINE
8
cam
10
0.483664694951
20
-0.523160619381
11
0.488134223857
21
-0.521739343062
0
LINE
8
cam
10
0.488134223857
20
-0.521739343062
11
0.492675395388
21
-0.520149073712
0
LINE
8
cam
10
0.492675395388
20
-0.520149073712
11
0.490018027292
21
-0.51150729551
0
LINE
8
cam
10
0.490018027292
20
-0.51150729551
11
0.49462978435
21
-0.509607169351
0
LINE
8
cam
10
0.49462978435
20
-0.509607169351
11
0.499280071661
21
-0.507524968446
0
LINE
8
cam
10
0.499280071661
20
-0.507524968446
11
0.503957126632
21
-0.505257480617
0
LINE
8
cam
10
0.503957126632
20
-0.505257480617
11
0.508648799757
21
-0.50280239368
0
LINE
8
cam
10
0.508648799757
20
-0.50280239368
11
0.513342648442
21
-0.500158318082
0
LINE
8
cam
10
0.513342648442
20
-0.500158318082
11
0.518026028076
21
-0.497324802872
0
LINE
8
cam
10
0.518026028076
20
-0.497324802872
11
0.522686180562
21
-0.494302345144
0
LINE
8
cam
10
0.522686180562
20
-0.494302345144
11
0.527310320405
21
-0.491092393135
0
LINE
8
cam
10
0.527310320405
20
-0.491092393135
11
0.531885718334
21
-0.48769734313
0
LINE
8
cam
10
0.531885718334
20
-0.48769734313
11
0.536399782425
21
-0.484120530344
0
LINE
8
cam
10
0.536399782425
20
-0.484120530344
11
0.540840136587
21
-0.480366213956
0
LINE
8
cam
10
0.540840136587
20
-0.480366213956
11
0.545194696263
21
-0.476439556484
0
LINE
8
cam
10
0.545194696263
20
-0.476439556484
11
0.549451741154
21
-0.472346597692
0
LINE
8
cam
10
0.549451741154
20
-0.472346597692
11
0.553599984773
21
-0.46809422324
0
LINE
8
cam
10
0.553599984773
20
-0.46809422324
11
0.557628640585
21
-0.463690128293
0
LINE
8
cam
10
0.557628640585
20
-0.463690128293
11
0.561527484527
21
-0.459142776329
0
LINE
8
cam
10
0.561527484527
20
-0.459142776329
11
0.565286913655
21
-0.454461353386
0
LINE
8
cam
10
0.565286913655
20
-0.454461353386
11
0.568898000697
21
-0.449655718004
0
LINE
8
cam
10
0.568898000697
20
-0.449655718004
11
0.572352544278
21
-0.444736347139
0
LINE
8
cam
10
0.572352544278
20
-0.444736347139
11
0.575643114584
21
-0.439714278323
0
LINE
8
cam
10
0.575643114584
20
-0.439714278323
11
0.578763094264
21
-0.43460104835
0
LINE
8
cam
10
0.578763094264
20
-0.43460104835
11
0.581706714352
21
-0.429408628804
0
LINE
8
cam
10
0.581706714352
20
-0.429408628804
11
0.584469085009
21
-0.424149358707
0
LINE
8
cam
10
0.584469085009
20
-0.424149358707
11
0.587046220922
21
-0.418835874599
0
LINE
8
cam
10
0.587046220922
20
-0.418835874599
11
0.589435061155
21
-0.413481038354
0
LINE
8
cam
10
0.589435061155
20
-0.413481038354
11
0.591633483323
21
-0.408097863027
0
LINE
8
cam
10
0.591633483323
20
-0.408097863027
11
0.593640311913
21
-0.402699437021
0
LINE
8
cam
10
0.593640311913
20
-0.402699437021
11
0.595455320627
21
-0.397298846858
0
LINE
8
cam
10
0.595455320627
20
-0.397298846858
11
0.597079228607
21
-0.391909098807
0
LINE
8
cam
10
0.597079228607
20
-0.391909098807
11
0.598513690409
21
-0.386543039615
0
LINE
8
cam
10
0.598513690409
20
-0.386543039615
11
0.599761279616
21
-0.381213276543
0
LINE
8
cam
10
0.599761279616
20
-0.381213276543
11
0.60082546593
21
-0.37593209687
0
LINE
8
cam
10
0.60082546593
20
-0.37593209687
11
0.601710585632
21
-0.370711386985
0
LINE
8
cam
10
0.601710585632
20
-0.370711386985
11
0.602421805238
21
-0.365562551105
0
LINE
8
cam
10
0.602421805238
20
-0.365562551105
11
0.602965078169
21
-0.36049642959
0
LINE
8
cam
10
0.602965078169
20
-0.36049642959
11
0.603347094229
21
-0.355523216713
0
LINE
8
cam
10
0.603347094229
20
-0.355523216713
11
0.612387085603
21
-0.355380067631
0
LINE
8
cam
10
0.612387085603
20
-0.355380067631
11
0.612496222453
21
-0.350569736601
0
LINE
8
cam
10
0.612496222453
20
-0.350569736601
11
0.612466776169
21
-0.345879763474
0
LINE
8
cam
10
0.612466776169
20
-0.345879763474
11
0.612307735311
21
-0.341316956169
0
LINE
8
cam
10
0.612307735311
20
-0.341316956169
11
0.612028457136
21
-0.336887029421
0
LINE
8
cam
10
0.612028457136
20
-0.336887029421
11
0.611638565374
21
-0.332594504274
0
LINE
8
cam
10
0.611638565374
20
-0.332594504274
11
0.611147836781
21
-0.328442599009
0
LINE
8
cam
10
0.611147836781
20
-0.328442599009
11
0.610566075225
21
-0.324433108189
0
LINE
8
cam
10
0.610566075225
20
-0.324433108189
11
0.609902971758
21
-0.320566265338
0
LINE
8
cam
10
0.609902971758
20
-0.320566265338
11
0.609167948853
21
-0.316840583262
0
LINE
8
cam
10
0.609167948853
20
-0.316840583262
11
0.608369986701
21
-0.313252663854
0
LINE
8
cam
10
0.608369986701
20
-0.313252663854
11
0.607517429225
21
-0.309796966411
0
LINE
8
cam
10
0.607517429225
20
-0.309796966411
11
0.606617767508
21
-0.306465519467
0
LINE
8
cam
10
0.606617767508
20
-0.306465519467
11
0.605677398727
21
-0.303247555721
0
LINE
8
cam
10
0.605677398727
20
-0.303247555721
11
0.604701360051
21
-0.300129042044
0
LINE
8
cam
10
0.604701360051
20
-0.300129042044
11
0.60369304007
21
-0.297092066152
0
LINE
8
cam
10
0.60369304007
20
-0.297092066152
11
0.60265387668
21
-0.294114027245
0
LINE
8
cam
10
0.60265387668
20
-0.294114027245
11
0.601583062838
21
-0.291166558858
0
LINE
8
cam
10
0.601583062838
20
-0.291166558858
11
0.600477305186
21
-0.288214087533
0
LINE
8
cam
10
0.600477305186
20
-0.288214087533
11
0.599330724265
21
-0.285211901886
0
LINE
8
cam
10
0.599330724265
20
-0.285211901886
11
0.598135064552
21
-0.282103578852
0
LINE
8
cam
10
0.598135064552
20
-0.282103578852
11
0.596880524337
21
-0.278817605762
0
LINE
8
cam
10
0.596880524337
20
-0.278817605762
11
0.59555776045
21
-0.275263096402
0
LINE
8
cam
10
0.59555776045
20
-0.275263096402
11
0.594162023632
21
-0.271324740563
0
LINE
8
cam
10
0.594162023632
20
-0.271324740563
11
0.592700967387
21
-0.266857799235
0
LINE
8
cam
10
0.592700967387
20
-0.266857799235
11
0.591208322111
21
-0.261685542904
0
LINE
8
cam
10
0.591208322111
20
-0.261685542904
11
0.589765676624
21
-0.255604755482
0
LINE
8
cam
10
0.589765676624
20
-0.255604755482
11
0.588532066235
21
-0.24841019127
0
LINE
8
cam
10
0.588532066235
20
-0.24841019127
11
0.578412417385
21
-0.236432381719
0
LINE
8
cam
10
0.578412417385
20
-0.236432381719
11
0.578446779093
21
-0.226852825527
0
LINE
8
cam
10
0.578446779093
20
-0.226852825527
11
0.57970991879
21
-0.216337717093
0
LINE
8
cam
10
0.57970991879
20
-0.216337717093
11
0.582452583336
21
-0.205496301259
0
LINE
8
cam
10
0.582452583336
20
-0.205496301259
11
0.586606145449
21
-0.195113313835
0
LINE
8
cam
10
0.586606145449
20
-0.195113313835
11
0.591764869632
21
-0.185863957528
0
LINE
8
cam
10
0.591764869632
20
-0.185863957528
11
0.59736779228
21
-0.178093736465
0
LINE
8
cam
10
0.59736779228
20
-0.178093736465
11
0.612595139985
21
-0.174351665336
0
LINE
8
cam
10
0.612595139985
20
-0.174351665336
11
0.617822010494
21
-0.169256238615
0
LINE
8
cam
10
0.617822010494
20
-0.169256238615
11
0.62256333238
21
-0.165184743993
0
LINE
8
cam
10
0.62256333238
20
-0.165184743993
11
0.626811083767
21
-0.161877655601
0
LINE
8
cam
10
0.626811083767
20
-0.161877655601
11
0.630618705334
21
-0.159122611468
0
LINE
8
cam
10
0.630618705334
20
-0.159122611468
11
0.634062787621
21
-0.156756808182
0
LINE
8
cam
10
0.634062787621
20
-0.156756808182
11
0.637222214266
21
-0.154658650808
0
LINE
8
cam
10
0.637222214266
20
-0.154658650808
11
0.640168605141
21
-0.152737642972
0
LINE
8
cam
10
0.640168605141
20
-0.152737642972
11
0.642962940607
21
-0.15092574796
0
LINE
8
cam
10
0.642962940607
20
-0.15092574796
11
0.645655184505
21
-0.149170872107
0
LINE
8
cam
10
0.645655184505
20
-0.149170872107
11
0.64828518034
21
-0.14743222067
0
LINE
8
cam
10
0.64828518034
20
-0.14743222067
11
0.650883965386
21
-0.145677077239
0
LINE
8
cam
10
0.650883965386
20
-0.145677077239
11
0.653475113579
21
-0.143878598069
0
LINE
8
cam
10
0.653475113579
20
-0.143878598069
11
0.65607595122
21
-0.142014308574
0
LINE
8
cam
10
0.65607595122
20
-0.142014308574
11
0.658698599444
21
-0.140065079152
0
LINE
8
cam
10
0.658698599444
20
-0.140065079152
11
0.661350845402
21
-0.138014426696
0
LINE
8
cam
10
0.661350845402
20
-0.138014426696
11
0.664036862402
21
-0.135848037391
0
LINE
8
cam
10
0.664036862402
20
-0.135848037391
11
0.666757803882
21
-0.133553440144
0
LINE
8
cam
10
0.666757803882
20
-0.133553440144
11
0.669512294939
21
-0.131119782753
0
LINE
8
cam
10
0.669512294939
20
-0.131119782753
11
0.672296841939
21
-0.128537678261
0
LINE
8
cam
10
0.672296841939
20
-0.128537678261
11
0.675106177113
21
-0.12579909912
0
LINE
8
cam
10
0.675106177113
20
-0.12579909912
11
0.677933551672
21
-0.12289730377
0
LINE
8
cam
10
0.677933551672
20
-0.12289730377
11
0.680770988127
21
-0.119826784882
0
LINE
8
cam
10
0.680770988127
20
-0.119826784882
11
0.683609500165
21
-0.116583231717
0
LINE
8
cam
10
0.683609500165
20
-0.116583231717
11
0.686439286566
21
-0.113163501286
0
LINE
8
cam
10
0.686439286566
20
-0.113163501286
11
0.689249904166
21
-0.109565594505
0
LINE
8
cam
10
0.689249904166
20
-0.109565594505
11
0.692030423748
21
-0.105788634634
0
LINE
8
cam
10
0.692030423748
20
-0.105788634634
11
0.694769571819
21
-0.101832846051
0
LINE
8
cam
10
0.694769571819
20
-0.101832846051
11
0.687540206089
21
-0.0964034624003
0
LINE
8
cam
10
0.687540206089
20
-0.0964034624003
11
0.690154329789
21
-0.0921555052598
0
LINE
8
cam
10
0.690154329789
20
-0.0921555052598
11
0.692692604268
21
-0.0877375990418
0
LINE
8
cam
10
0.692692604268
20
-0.0877375990418
11
0.695143625317
21
-0.0831540589181
0
LINE
8
cam
10
0.695143625317
20
-0.0831540589181
11
0.697496204713
21
-0.0784101555911
0
LINE
8
cam
10
0.697496204713
20
-0.0784101555911
11
0.699739459426
21
-0.0735120784647
0
LINE
8
cam
10
0.699739459426
20
-0.0735120784647
11
0.701862894688
21
-0.0684668950266
0
LINE
8
cam
10
0.701862894688
20
-0.0684668950266
11
0.703856481168
21
-0.0632825064546
0
LINE
8
cam
10
0.703856481168
20
-0.0632825064546
11
0.705710726433
21
-0.0579675995244
0
LINE
8
cam
10
0.705710726433
20
-0.0579675995244
11
0.70741674079
21
-0.0525315949479
0
LINE
8
cam
10
0.70741674079
20
-0.0525315949479
11
0.708966297548
21
-0.0469845923175
0
LINE
8
cam
10
0.708966297548
20
-0.0469845923175
11
0.710351887721
21
-0.0413373118657
0
LINE
8
cam
10
0.710351887721
20
-0.0413373118657
11
0.711566769148
21
-0.0356010332821
0
LINE
8
cam
10
0.711566769148
20
-0.0356010332821
11
0.712605009995
21
-0.0297875318565
0
LINE
8
cam
10
0.712605009995
20
-0.0297875318565
11
0.71346152659
21
-0.023909012236
0
LINE
8
cam
10
0.71346152659
20
-0.023909012236
11
0.714132115547
21
-0.017978040106
0
LINE
8
cam
10
0.714132115547
20
-0.017978040106
11
0.714613480132
21
-0.0120074721181
0
LINE
8
cam
10
0.714613480132
20
-0.0120074721181
11
0.71490325082
21
-0.006010384401
0
LINE
8
cam
10
0.71490325082
20
-0.006010384401
11
0.715
21
-5.93188817989e-16
0
CIRCLE
8
cam
10
-0.05
20
0
40
0.075
0
CIRCLE
8
roller
10
0.8
20
0.0
40
0.075
0
CIRCLE
8
roller
10
0.673002826265
20
0.432512653964
40
0.075
0
CIRCLE
8
roller
10
0.332332010402
20
0.727705596284
40
0.075
0
CIRCLE
8
roller
10
-0.113851870619
20
0.791857153505
40
0.075
0
CIRCLE
8
roller
10
-0.523888587156
20
0.604599659483
40
0.075
0
CIRCLE
8
roller
10
-0.767594378892
20
0.225386045473
40
0.075
0
CIRCLE
8
roller
10
-0.767594378892
20
-0.225386045473
40
0.075
0
CIRCLE
8
roller
10
-0.523888587156
20
-0.604599659483
40
0.075
0
CIRCLE
8
roller
10
-0.113851870619
20
-0.791857153505
40
0.075
0
CIRCLE
8
roller
10
0.332332010402
20
-0.727705596284
40
0.075
0
CIRCLE
8
roller
10
0.673002826265
20
-0.432512653964
40
0.075
0
CIRCLE
8
roller
10
0
20
0
40
0.075
0
ENDSEC
0
EOF
